Oops, an error
Loading. Please wait.

Im A Loser Tab

version 1
version 1

Whole song

Interactive

24,273 views 15 this week
3 commentsread comments
1 2 3 4 5
excellent!
x 5
add to favorites
launch autoscroll
font size
0
reset
how to read this tab
guitar tuner
Tab Pro tools
  • play this tab
  • loop segment
  • change instrument
  • show fretboard
  • metronome
×
Best way to learn
"Im A Loser"
Autoscroll
slow
fast
+/-
esc
set tempo
stop
Contributor
--------------------------------------------------------------------
  THE BEATLES - I'M A LOSER (Lennon/McCartney) From BEATLES FOR SALE
                album. Released 4th December 1964.
---------------------------------------------------------------------
  Tabbed by:PJVillanueva


I'm a loser
I'm a loser
And I'm not what I appear to be

Of all the love I have won or have lost
there is one love I should never have crossed
She was a girl in a million, my friend
I should have known she would win in the end

I'm a loser
And I lost someone who's near to me
I'm a loser
And I'm not what I appear to be

Although I laugh and I act like a clown
Beneath this mask I am wearing a frown
My tears are falling like rain from the sky
Is it for her or myself that I cry

I'm a loser
And I lost someone who's near to me
I'm a loser
And I'm not what I appear to be

What have I done to deserve such a fate
I realize I have left it too late
And so it's true, pride comes before a fall
I'm telling you so that you won't lose all

I'm a loser
And I lost someone who's near to me
I'm a loser
And I'm not what I appear to be




                                                   I'm a                                    
                             (.
e|------ ------ ------ ------|------ ------ ------ ------|
B|--------------1------------|3--------------------------|
G|--------------2------------|2--------------------------|
D|-------2-------------------|0--------------------------|
A|0--------------------------|0--------------------------|
E|---------------------------|---------------------------|
  loo.........................ser                   I'm a
                             (.
e|------ ------ ------ ------|------ ------ ------ ------|
B|--------------1------------|3--------------------------|
G|--------------2------------|2--------------------------|
D|-------2-------------------|0--------------------------|
A|0--------------------------|0--------------------------|
E|---------------------------|---------------------------|
  loo.........................ser                  and I'm 
  
e|------ 0----- ----0- 0-----|0----- 0----- ------ ------|
B|-------1----------1--1-----|1------1-------------------|
G|2------2----------2--2-----|2------2-------------------|
D|2------2----------2--2-----|3------3-------------------|
A|0------0----------0--0-----|---------------------------|
E|---------------------------|---------------------------|
  not    what   I      appear        to be


  
e|3----- 3----- 3---3- 3-----|3----- 3----- 3---3- 3-----|
B|3------3------3---3--3-----|3------3------3---3--3-----|
G|0------0------0---0--0-----|2------2------2---2--2-----|
D|0------0------0---0--0-----|0------0------0---0--0-----|
A|2------2------2---2--2-----|---------------------------|
E|3------3------3---3--3-----|---------------------------|
         Of all    the    love              I      have
e|------ 3----- ------ ------|------ ------ ------ ------|
B|-----------------3---------|---------------------------|
G|---------------------------|---------------------------|


  
e|3----- 3----- 3---3- 3-----|3----- 3----- 3---3- 3-----|
B|1------1------1---1--1-----|3------3------3---3--3-----|
G|2------2------2---2--2-----|0------0------0---0--0-----|
D|3------3------3---3--3-----|0------0------0---0--0-----|
A|---------------------------|2------2------2---2--2-----|
E|---------------------------|3------3------3---3--3-----|
  won           or  have   lost
e|------ 3----- ------ ------|------ ------ ------ ------|
B|---------------------------|-------3----------3--------|
G|---------------------------|0----------0---------0-----|



e|3----- 3---3- 3---3- 3-----|3----- 3----- 3---3- 3-----|
B|3------3---3--3---3--3-----|3------3------3---3--3-----|
G|0------0---0--0---0--0-----|2------2------2---2--2-----|
D|0------0---0--0---0--0-----|0------0------0---0--0-----|
A|2------2---2--2---2--2-----|---------------------------|
E|3------3---3--3---3--3-----|---------------------------|
        There  is   one      love           I      should 

e|3----- 3----- 3---3- 3-----|3----- 3---3- 3---3- 3-----|
B|1------1------1---1--1-----|3------3---3--3---3--3-----|
G|2------2------2---2--2-----|0------0---0--0---0--0-----|
D|3------3------3---3--3-----|0------0---0--0---0--0-----|
A|---------------------------|2------2---2--2---2--2-----|
E|---------------------------|3------3---3--3---3--3-----|
  never     have              crossed
e|------ ------ ------ ------|------ 3----- ------ 3-----|
B|---------------------------|------------------3--------|
G|---------------------------|0-------------0----------0-|


e|3----- 3----- 3---3- 3-----|3----- 3---3- 3---3- 3-----|
B|3------3------3---3--3-----|3------3---3--3---3--3-----|
G|0------0------0---0--0-----|2------2---2--2---2--2-----|
D|0------0------0---0--0-----|0------0---0--0---0--0-----|
A|2------2------2---2--2-----|---------------------------|
E|3------3------3---3--3-----|---------------------------|
         She was   a        girl        in     a     mi..

e|3----- 3----- 3---3- 3-----|3----- 3----- 3---3- 3---3-|
B|1------1------1---1--1-----|3------3------3---3--3---3-|
G|2------2------2---2--2-----|0------0------0---0--0---0-|
D|3------3------3---3--3-----|0------0------0---0--0---0-|
A|---------------------------|2------2------2---2--2---2-|
E|---------------------------|3------3------3---3--3---3-|
  ....llion        my     friend
e|------ ------ ------ ------|------ ------ ------ 3-----|
B|---------------------------|---------------------------|
G|---------------------------|-------0------3---4------0-|


e|3----- 3----- 3---3- 3-----|3----- 3---3- 3---3- 3-----|
B|3------3------3---3--3-----|3------3---3--3---3--3-----|
G|0------0------0---0--0-----|2------2---2--2---2--2-----|
D|0------0------0---0--0-----|0------0---0--0---0--0-----|
A|2------2------2---2--2-----|---------------------------|
E|3------3------3---3--3-----|---------------------------|
         I      should have known           she    would

e|3----- 3----- 3---3- 3-----|3----- 3----- 3---3- 3-----|
B|1------1------1---1--1-----|3------3------3---3--3-----|
G|2------2------2---2--2-----|0------0------0---0--0-----|
D|3------3------3---3--3-----|0------0------0---0--0-----|
A|---------------------------|2------2------2---2--2-----|
E|---------------------------|3------3------3---3--3-----|
  win       in      the       end           I'm a     loo.
e|------ ------ ----3- ------|------ ------ ------ ------|
B|-------------------------3-|---------------------------|
G|---------------------------|0--------------------------|

  
e|3----- 3----- 3---3- 3-----|2----- 2----- 2---2- 2-----|
B|1------1------1---1--1-----|3------3------3---3--3-----|
G|2------2------2---2--2-----|2------2------2---2--2-----|
D|2------2------2---2--2-----|0------0------0---0--0-----|
A|0------0------0---0--0-----|---------------------------|
E|---------------------------|---------------------------|
  .........................ser               and I                             

e|3----- 3----- 3---3- 3-----|0----- ----2- ----2- 2-----|
B|1------1------1---1--1-----|1----------3------3--3-----|
G|2------2------2---2--2-----|2----------2------2--2-----|
D|2------2------2---2--2-----|3----------0------0--0-----|
A|0------0------0---0--0-----|---------------------------|
E|---------------------------|---------------------------|
  lost   someone       who's  near   to me    I'm   a loo.
 
e|3----- 3---3- ----3- 3-----|0----- 0----- 0---0- 0-----|
B|3------3---3------3--3-----|0------0------0---0--0-----|
G|0------0---0------0--0-----|0------0------0---0--0-----|
D|0------0---0------0--0-----|2------2------2---2--2-----|
A|2------2---2------2--2-----|2------2------2---2--2-----|
E|3------3---3------3--3-----|0------0------0---0--0-----|
  ..........................ser                and I'm 
  
e|0----- 0----- 0---0- 0-----|0----- ----2- ----2- 2-----|
B|1------1------1---1--1-----|1----------3------3--3-----|
G|2------2------2---2--2-----|2----------2------2--2-----|
D|2------2------2---2--2-----|3----------0------0--0-----|
A|0------0------0---0--0-----|---------------------------|
E|---------------------------|---------------------------|
  not    what   I        appear      to be
  
e|3----- 3----- 3---3- 3-----|3----- 3---3- 3---3- 3-----|
B|3------3------3---3--3-----|3------3---3--3---3--3-----|
G|0------0------0---0--0-----|2------2---2--2---2--2-----|
D|0------0------0---0--0-----|0------0---0--0---0--0-----|
A|2------2------2---2--2-----|---------------------------|
E|3------3------3---3--3-----|---------------------------|
         Although  I     laugh              and  I
e|------ 3----- ------ ------|2----- ------ ------ ------|
B|------------------3--------|-----------3---------------|
G|---------------------------|---------------------------|

          

e|3----- 3----- 3---3- 3-----|3----- 3---3- 3---3- 3-----|
B|1------1------1---1--1-----|3------3---3--3---3--3-----|
G|2------2------2---2--2-----|0------0---0--0---0--0-----|
D|3------3------3---3--3-----|0------0---0--0---0--0-----|
A|---------------------------|2------2---2--2---2--2-----|
E|---------------------------|3------3---3--3---3--3-----|
  act           like  a       clown
e|------ 3----- ------ ------|------ ------ ------ ------|
B|---------------------------|---------------------3-----|
G|------------------0------0-|-----------3--4----------0-|

e|3----- 3---3- 3---3- 3-----|3----- 3----- 3---3- 3-----|
B|3------3---3--3---3--3-----|3------3------3---3--3-----|
G|0------0---0--0---0--0-----|2------2------2---2--2-----|
D|0------0---0--0---0--0-----|0------0------0---0--0-----|
A|2------2---2--2---2--2-----|---------------------------|
E|3------3---3--3---3--3-----|---------------------------|
         beneath   this       mask      I      am
e|------ ------ ------ ------|------ ------ ------ ------|
B|0--------------------------|---------------------------|
G|---------------------------|---------------------------|


e|3----- 3----- 3---3- 3-----|3----- 3---3- 3---3- 3-----|
B|1------1------1---1--1-----|3------3---3--3---3--3-----|
G|2------2------2---2--2-----|0------0---0--0---0--0-----|
D|3------3------3---3--3-----|0------0---0--0---0--0-----|
A|---------------------------|2------2---2--2---2--2-----|
E|---------------------------|3------3---3--3---3--3-----|
  wearing          a          frown
e|------ ------ ------ ------|------ 3----- ----3- ------|
B|---------------------------|-------------------------0-|
G|---------------------------|0----------3--4------0-----|


e|3----- 3---3- 3---3- 3---3-|3----- 3---3- 3---3- 3-----|
B|3------3---3--3---3--3---3-|3------3---3--3---3--3-----|
G|0------0---0--0---0--0---0-|2------2---2--2---2--2-----|
D|0------0---0--0---0--0---0-|0------0---0--0---0--0-----|
A|2------2---2--2---2--2---2-|---------------------------|
E|3------3---3--3---3--3---3-|---------------------------|
         My     tears  are    fallin'          like

e|3----- 3----- 3---3- 3---3-|3----- 3---3- 3---3- 3-----|
B|1------1------1---1--1---1-|3------3---3--3---3--3-----|
G|2------2------2---2--2---2-|0------0---0--0---0--0-----|
D|3------3------3---3--3---3-|0------0---0--0---0--0-----|
A|---------------------------|2------2---2--2---2--2-----|
E|---------------------------|3------3---3--3---3--3-----|
  rain      from   the     sky
e|------ ------ ------ ------|------ ------ ------ ------|
B|---------------------------|------------------3--0-----|
G|---------------------------|-----------3--4------------|



e|3----- 3---3- 3---3- 3-----|3----- 3----- 3---3- 3-----|
B|3------3---3--3---3--3-----|3------3------3---3--3-----|
G|0------0---0--0---0--0-----|2------2------2---2--2-----|
D|0------0---0--0---0--0-----|0------0------0---0--0-----|
A|2------2---2--2---2--2-----|---------------------------|
E|3------3---3--3---3--3-----|---------------------------|
         Is it     for     her          or          my...
e|------ ------ ------ ------|------ ------ ------ ------|
B|---------------------------|---------------------------|
G|0--------------------------|---------------------------|


e|3----- 3---3- 3---3- 3-----|3----- 3----- 3---3- 3-----|
B|1------1---1--1---1--1-----|3------3------3---3--3-----|
G|2------2---2--2---2--2-----|0------0------0---0--0-----|
D|3------3---3--3---3--3-----|0------0------0---0--0-----|
A|---------------------------|2------2------2---2--2-----|
E|---------------------------|3------3------3---3--3-----|
  self      that     I        cry           I'm  a    loo.
e|------ ------ ------ ----3-|------ ------ ------ ------|
B|--------------------------3|---------------------------|
G|---------------------------0---------------------------|
D|---------------------------|0--------------------------|
A|---------------------------|-2-------------------------|
E|---------------------------|--3------------------------|


e|3----- 3----- 3---3- 3-----|2----- 2----- 2---2- 2-----|
B|1------1------1---1--1-----|3------3------3---3--3-----|
G|2------2------2---2--2-----|2------2------2---2--2-----|
D|2------2------2---2--2-----|0------0------0---0--0-----|
A|0------0------0---0--0-----|---------------------------|
E|---------------------------|---------------------------|
  .........................ser              and I

e|3----- 3----- 3---3- 3-----|0----- ----2- ----2- 2-----|
B|1------1------1---1--1-----|1----------3------3--3-----|
G|2------2------2---2--2-----|2----------2------2--2-----|
D|2------2------2---2--2-----|3----------0------0--0-----|
A|0------0------0---0--0-----|---------------------------|
E|---------------------------|---------------------------|
  lost   someone       who's  near      to me   I'm a    

e|3----- 3---3- ----3- 3-----|0----- 0----- 0---0- 0-----|
B|3------3---3------3--3-----|0------0------0---0--0-----|
G|0------0---0------0--0-----|0------0------0---0--0-----|
D|0------0---0------0--0-----|2------2------2---2--2-----|
A|2------2---2------2--2-----|2------2------2---2--2-----|
E|3------3---3------3--3-----|0------0------0---0--0-----|
  loo.......................ser                and I'm

e|0----- 0----- 0---0- 0-----|0----- ----2- ----2- 2-----|
B|1------1------1---1--1-----|1----------3------3--3-----|
G|2------2------2---2--2-----|2----------2------2--2-----|
D|2------2------2---2--2-----|3----------0------0--0-----|
A|0------0------0---0--0-----|---------------------------|
E|---------------------------|---------------------------|
  not    what    I     appear        to be




Harmonica solo  G   Dsus4   F   G        
                G   Dsus4   F   G



e|------ ------ ------ ------|------ ------ ------ ------|
B|---------------------------|---------------------------|
G|---------------------------|---------------------------|
D|---------------------------|---------------------------|
A|---------------------------|---------------------------|
E|---------------------------|-------2------3-----4------|

  
e|------ ------ ------ ------|------ ------ ------ ------|
B|---------------------------|---------------------------|
G|---------------------------|---------------------------|
D|---------------------------|---------------------------|
A|0--------------------------|---------------------------|
E|---------------------------|---------------------------|


e|------ 5----- ------ ------|7----- ------ ----7- ------|
B|-------5----------5--------|-----------7---------------|
G|--------------5------------|---------------------7-----|
D|---------------------------|---------------------------|
A|---------------------------|---------------------------|
E|---------------------------|---------------------------|

 
e|------ 5----- ------ ------|7----- ------ ----7- ------|
B|-------5----------5--------|7----------7---------------|
G|------------------5--------|-----------7---------7-----|
D|--------------7------------|---------------------------|
A|---------------------------|---------------------------|
E|---------------------------|---------------------------|

  
e|------ 6----- ----6- ------|------ ------ ------ ------|
B|---------------------------|5----------5------5--------|
G|---------------------------|-----------7------7--------|
D|---------------------------|---------------------------|
A|---------------------------|---------------------------|
E|---------------------------|---------------------------|


e|------ 8----- -----5 ------|5----- ----5- ------ 5-----|
B|---------------------5-----|6----------6-B-7-----7-----|
G|---------------------------|---------------------------|
D|---------------------------|---------------------------|
A|---------------------------|---------------------------|
E|---------------------------|---------------------------|




e|3----- 3---3- 3---3- 3-----|3----- 3---3- 3---3- 3-----|
B|3------3---3--3---3--3-----|3------3---3--3---3--3-----|
G|0------0---0--0---0--0-----|2------2---2--2---2--2-----|
D|0------0---0--0---0--0-----|0------0---0--0---0--0-----|
A|2------2---2--2---2--2-----|---------------------------|
E|3------3---3--3---3--3-----|---------------------------|
         What   have I     done         to     deserve

e|3----- 3----- 3---3- 3-----|3----- 3----- 3---3- 3---3-|
B|1------1------1---1--1-----|3------3------3---3--3---3-|
G|2------2------2---2--2-----|0------0------0---0--0---0-|
D|3------3------3---3--3-----|0------0------0---0--0---0-|
A|---------------------------|2------2------2---2--2---2-|
E|---------------------------|3------3------3---3--3---3-|
                such  a   fate
e|------ ------ ----3- ------|------ ------ ------ ------|
B|---------------------0-----|---------------------------|
G|0----------3--4------------|---------------------------|


e|3----- 3---3- 3---3- 3-----|3----- 3---3- 3---3- 3-----|
B|3------3---3--3---3--3-----|3------3---3--3---3--3-----|
G|0------0---0--0---0--0-----|2------2---2--2---2--2-----|
D|0------0---0--0---0--0-----|0------0---0--0---0--0-----|
A|2------2---2--2---2--2-----|---------------------------|
E|3------3---3--3---3--3-----|---------------------------|
         I've   rea.......lised             I      have

e|3----- 3----- 3---3- 3-----|3----- 3---3- 3---3- 3-----|
B|1------1------1---1--1-----|3------3---3--3---3--3-----|
G|2------2------2---2--2-----|0------0---0--0---0--0-----|
D|3------3------3---3--3-----|0------0---0--0---0--0-----|
A|---------------------------|2------2---2--2---2--2-----|
E|---------------------------|3------3---3--3---3--3-----|
  learnt    it     too        late
e|------ 3----- ------ ------|----3- ------ ------ ------|
B|------------------3--------|---------------------------|
G|-------------------------0-|-------------2-B-4---------|


e|3----- 3---3- 3---3- 3-----|3----- 3---3- 3---3- 3-----|
B|3------3---3--3---3--3-----|3------3---3--3---3--3-----|
G|0------0---0--0---0--0-----|2------2---2--2---2--2-----|
D|0------0---0--0---0--0-----|0------0---0--0---0--0-----|
A|2------2---2--2---2--2-----|---------------------------|
E|3------3---3--3---3--3-----|---------------------------|
         And    so  it's      true      pride      comes

e|3----- 3----- 3---3- 3-----|3----- 3----- 3---3- 3---3-|
B|1------1------1---1--1-----|3------3------3---3--3---3-|
G|2------2------2---2--2-----|0------0------0---0--0---0-|
D|3------3------3---3--3-----|0------0------0---0--0---0-|
A|---------------------------|2------2------2---2--2---2-|
E|---------------------------|3------3------3---3--3---3-|
  before           a          fall
e|------ 3----- ------ ------|------ ------ ----3- ------|
B|---------------------------|------------------3--------|
G|---------------------------|0---------2-B-4------4-----|


e|3----- 3---3- 3---3- 3-----|3----- 3---3- 3---3- 3-----|
B|3------3---3--3---3--3-----|3------3---3--3---3--3-----|
G|0------0---0--0---0--0-----|2------2---2--2---2--2-----|
D|0------0---0--0---0--0-----|0------0---0--0---0--0-----|
A|2------2---2--2---2--2-----|---------------------------|
E|3------3---3--3---3--3-----|---------------------------|
         I'm    telling   you           so         that
e|------ ------ ------ ------|------ ------ ------ ------|
B|---------------------------|---------------------------|
G|0--------------------------|---------------------------|


e|3----- 3----- 3---3- 3-----|3----- 3----- 3---3- 3---3-|
B|1------1------1---1--1-----|3------3------3---3--3---3-|
G|2------2------2---2--2-----|0------0------0---0--0---0-|
D|3------3------3---3--3-----|0------0------0---0--0---0-|
A|---------------------------|2------2------2---2--2---2-|
E|---------------------------|3------3------3---3--3---3-|
  you       won't      lose   all           I'm  a    loo.
e|------ ------ ------ ------|------ ------ ------ ------|
B|-------------------------0-|---------------------------|
G|-------------------------0-|---------------------------|
D|-------------------------0-|---------------------------|
A|---------------------------|---------------------------|
E|---------------------------|---------------------------|


e|3----- 3---3- 3---3- 3-----|2----- 2----- 2---2- 2-----|
B|1------1---1--1---1--1-----|3------3------3---3--3-----|
G|2------2---2--2---2--2-----|2------2------2---2--2-----|
D|2------2---2--2---2--2-----|0------0------0---0--0-----|
A|0------0---0--0---0--0-----|---------------------------|
E|---------------------------|---------------------------|
  .........................ser               and I                             

e|3----- 3----- 3---3- 3-----|2----- 2---2- 2---2- 2-----|
B|1------1------1---1--1-----|3------3---3--3---3--3-----|
G|2------2------2---2--2-----|2------2---2--2---2--2-----|
D|2------2------2---2--2-----|0------0---0--0---0--0-----|
A|0------0------0---0--0-----|---------------------------|
E|---------------------------|---------------------------|
  lost   someone       who's  near   to me     I'm  a loo.

e|3----- 3---3- ----3- 3-----|0----- 0----- 0---0- 0-----|
B|3------3---3------3--3-----|0------0------0---0--0-----|
G|0------0---0------0--0-----|0------0------0---0--0-----|
D|0------0---0------0--0-----|2------2------2---2--2-----|
A|2------2---2------2--2-----|2------2------2---2--2-----|
E|3------3---3------3--3-----|0------0------0---0--0-----|
  ..........................ser                and I'm 
  
e|0----- 0----- 0---0- 0-----|0----- ----2- ----2- 2-----|
B|1------1------1---1--1-----|1----------3------3--3-----|
G|2------2------2---2--2-----|2----------2------2--2-----|
D|2------2------2---2--2-----|3----------0------0--0-----|
A|0------0------0---0--0-----|---------------------------|
E|---------------------------|---------------------------|
  not    what   I        appear      to be
  




Harmonica solo     G   Dsus4   F   G
                   G   Dsus4   F   G



 
e|------ 5----- ------ ------|7----- ------ ----7- ------|
B|-------5----------5--------|7----------7---------------|
G|--------------5------------|-----------7---------7-----|
D|---------------------------|---------------------------|
A|---------------------------|---------------------------|
E|---------------------------|---------------------------|


e|------ 5----- ------ ------|7----- ------ ------ ------|
B|-------5----------5--------|-----------7------7--------|
G|---------------------------|---------------------------|
D|---------------------------|---------------------------|
A|---------------------------|---------------------------|
E|---------------------------|---------------------------|
  .  .  .  .  .  .  .  .  . Fade .  .  .  .  .  .  .  .  .
 
e|------ 6----- ------ ------|------ ------ ------ ------|
B|------------------3--------|---------------------------|
G|---------------------------|---------------------------|
D|---------------------------|---------------------------|
A|---------------------------|---------------------------|
E|---------------------------|---------------------------|
  .  .  .  .  .  .  .  .  .  



        B  Bend
        R  Release
        /  slide up
        \  slide down
        H  hammer-on
        P  pull-off
        ~  vibrato
        +  harmonic
        x  Mute note
        . - play note like a dot in standard notation
        ^ - ties two notes together
comments
print report bad tab
3 comments total.
0 reply
tobunshi wrote on October 16 2011, 05:48 am

I love your tabs, PJVILL. I can always trust them! :)

0 reply
PJVILL wrote on June 17 2014, 08:09 am

Thanks! I'm glad you like them. Regards

0 reply
pmccormack wrote on June 15 2014, 11:10 am

This song is about me haha!

I want to post or [tab]
guest
You may want to rate the tab now too:
select rating
Please do not post tabs as comments. Select "correction" instead!