Oops, an error
Loading. Please wait.

Im Down chords

version 3
version 3

Whole song

Interactive

370 views 21 this week
no commentswrite comment
1 2 3 4 5
x 3
add to favorites
×
Save as Personal and add changes to this tab that will be seen only by you. Learn more ›
×
You can save this tab as Personal to edit and correct it or add notes. All changes will be seen only by you. Learn more »
launch autoscroll
font size
0
reset
transpose
0
reset
simplify chords
display chords
guitar tuner
edit
Autoscroll
slow
fast
+/-
esc
set tempo
stop
Author
Difficulty
Strumming
There is no strumming pattern for this song yet. and get +5 IQ
I'm Down
Lennon/McCartney  1964


[Verse]
G                      G7
You tell lies thinking I can't see

G                          G7
You can't cry cause you're laughing at me

[Chorus]
    C                    C7
I'm down     (I'm really down)

    G                    G7
I'm down     (Down on the ground)

    C7                   C7
I'm down     (I'm really down)

D7          G
How can you laugh  when you know I'm down?

D7          G     
How can you laugh  when you know I'm down?

[Verse]
G                   G7            
Man buys ring woman throws it away

G                     G7
Same old thing happen every day

[Chorus]
    C                    C7
I'm down     (I'm really down)

    G                    G7
I'm down     (Down on the ground)

    C7                   C7
I'm down     (I'm really down)

D7          G     
How can you laugh  when you know I'm down?

D7          G   
How can you laugh  when you know I'm down?

[Solo]
*******************************************************************************************
p means 'pull off'
h means 'hammer on'
/ means 'slide up'
b means 'bend' with the following number equal to the "number of frets up" to bend to.
*******************************************************************************************
When I'm playing the "5b2" below, I use a lot of vibrato to give the solo a slinky/funky spirit

The last note of the solo (fifth fret of the 3rd string or G note)
is where I start the verse again as indicated by the indent


e|----------------------------------------------------------------------------|
B|----------------------------------------------------------------------------|
G|----------------------------------------------2--2--2p-0--------------------|
D|-----0--3--0----------------------0--3--0--3--------------3------5--8--5----|
A|---2----------2--2-----2--3----2-----------------------------3/7------------|
E|-3------------------3--------3----------------------------------------------|

e|----------------------------------------------------------------------------|
B|----------------------------------------------------------------------------|
G|--5b2-5b2-5b2----------------5b2--5b2--5b2--5b2--5b2--5b2-5b2-5b2-5b2-5b2---|
D|8-------------8--5--5--8--5-----------------------------------------------8-|
A|----------------------------------------------------------------------------|
E|----------------------------------------------------------------------------|

e|-----------------------------------|
B|---------5-6-7-7-7-5---------------|
G|-5--7/8-------------8--5-----------|
D|-----------------------------------|
A|-----------------------------------|
E|--------------------------------------------------------------0h1-|

[Verse]
                         G                           G7
                         We're all alone and there's nobody else

G                            G7
You'll still moan "Keep your hands to yourself!"

[Chorus]
    C                    C7
I'm down     (I'm really down)
    G                    G7
I'm down     (Down on the ground)
    C7                   C7
I'm down     (I'm really down)

D7          G
How can you laugh  when you know I'm down?
D7          G
How can you laugh  when you know I'm down?   scream



[Outro]
           G7                                 G7
I'm really down (I'm really down) I guess I'm down (I'm really down)

G7                C7                                     G7
I'm really upside down (I'm really down) I'm down on the ground (I'm really down)

           D7    C7       G
I'm really down  yeah I'm down  yeah!!
G                                             G                                 C
I'm really down (I'm really down) Ah baby I'm down (I'm really down) I'm upside down (I'm really down)

C7               G
Down!   On the ground

    D7                  C                        G
I'm down down down down down down down down down down  Yeah!  Oooohh I'm down



-By Sbrenn01

            
            
Suggest correction
Creating personal tab
Creating personal tab
You can edit any tab online and save it as your Personal.

You can edit, replace or remove any tab part or add personal notes – all changes will be seen only by you.

Personal tabs can be accessed anytime from any device, even offline.
Learn more »
Give kudos to tab author, rate the tab!
1 2 3 4 5
comments
print report bad tab
guest
You may want to rate the tab now too:
select rating
Wanna post a correction for this tab? Suggest correction