Oops, an error
Loading. Please wait.
We have an official Im Happy Just To Dance With You tab made by UG professional guitarists. Check out the tab »
×
6,277 views 9 this week
1 commentread comment
1 2 3 4 5
x 5
add to favorites
×
Save as Personal and add changes to this tab that will be seen only by you. Learn more ›
×
You can save this tab as Personal to edit and correct it or add notes. All changes will be seen only by you. Learn more »
launch autoscroll
font size
0
reset
guitar tuner
edit
Autoscroll
slow
fast
+/-
esc
set tempo
stop
Author
I'm Happy Just To Dance With You
The Beatles
Written by John Lennon and Paul McCartney; released on "A Hard Day's Night" 
album.

Not ground-breaking, but it's a very fine song, and not so easy to play.

Intro:
G|------- ------- ------- -------|------- ------- ------- -------|
D|-------------------------------|-------------------------------|
A|4-----------4-------2----------|------------------------2------|
E|------------------------4------|2-----------4-------4-------4--|



G|------- ------- ------- -------|------- ------- ------- -------|
D|-------------------------------|-------------------------------|
A|4-----------4-------2----------|------------------------2------|
E|------------------------4---0--|2-----------4-------4-------4--|
                                                      Before this


G|------- ------- ------- -------|------- ------- ------- -------|
D|-------------------------------|-------------------------------|
A|4-----------4-------2----------|-------------------------------|
E|------------------------4---0--|2-----------4-------4---2---4--|
  dance   is  through, I  think   love you    too,        I'm so
                              I'll

G|------- ------- ------- -------|------- ------- ------- -------|
D|-------------------------------|-------------------------------|
A|----------------------------6--|7-----------7---------------6--|
E|5-------5---7---7---7---9------|----------------7---7---9------|
  happy   when you dance     with me                      I   don't

Verse:
G|------- ------- ------- -------|------- ------- ------- -------|
D|----------------6-------5------|4-------6---4------------------|
A|7-------9---7------------------|------------------------4---6--|
E|-------------------------------|----------------7---7----------|
  wanna   kiss or hold your   hand,                       If  it's


G|------- ------- ------- -------|------- ------- ------- -------|
D|----------------6-------5------|4-------6----------------------|
A|7-------9---7------------------|-------------------------------|
E|-------------------------------|------------7---7---7---9---7--|
  funny,  try and un- der  -  stand,                     There is


G|------- ------- ------- -------|------- ------- ------- -------|
D|7-----------7------------------|-------------------------------|
A|-------------------------------|7---7---7----------------------|
E|----------------9---9---9---7--|------------9---9---9---9---7--|
  really  nothing else I'd rather do,                     Cause I'm


G|------- ------- ------- -------|------- ------- ------- -------|
D|-------------------------------|-------------------------------|
A|-------------------------------|7---7-----------------------6--|
E|5---5---5---7---7---7---7---7--|--------7---7---7---7---9------|
  happy   just to dance      with you                     I   don't

Verse:
G|------- ------- ------- -------|------- ------- ------- -------|
D|----------------6-------5------|4-------6---4------------------|
A|7-------9---7------------------|------------------------4---6--|
E|-------------------------------|----------------7---7----------|
  need to hug or  hold you    tight,                      I   just


G|------- ------- ------- -------|------- ------- ------- -------|
D|----------------6-------5------|4-------6---4------------------|
A|7-------9---7------------------|------------------------4------|
E|-------------------------------|----------------7---7-------7--|
  wanna   dance   you all     night,                      In  this
              with

G|------- ------- ------- -------|------- ------- ------- -------|
D|7-----------7------------------|-------------------------------|
A|-------------------------------|7------------------------------|
E|----------------9---9---9---7--|------------7---9---9---9---7--|
  world   nothing I  would rather do,                     Cause I'm
      there's

G|------- ------- ------- -------|------- ------- ------- -------|
D|-------------------------------|-------------------------------|
A|-------------------------------|7---7---7---7---7-------4---2--|
E|5---5---5---5---7---7---7---7--|--------------------7----------|
  happy   just to dance      with you                    Just to

Refrain:
G|------- ------- ------- -------|------- ------- ------- -------|
D|-------------------------------|-------------------------------|
A|4-----------4-------2----------|------------------------2------|
E|------------------------4---0--|2-----------4-------4-------4--|
  Dance      with you                                         is


G|------- ------- ------- -------|------- ------- ------- -------|
D|-------------------------------|-------------------------------|
A|4-------2---4-------2----------|------------------------2------|
E|------------------------4---0--|2-----------4-------4-------4--|
  eve  -  ry  -   thing   I       need                Before this
                                  o     -     oh

G|------- ------- ------- -------|------- ------- ------- -------|
D|-------------------------------|-------------------------------|
A|4-------2---4-------2----------|-------------------------------|
E|------------------------4---0--|2-----------4-------4---2---4--|
  dance   is  through, I  think   love you    too,        I'm so
                              I'll
  Aaaaaaaaaaaaaaaaaaaaaaaa        o     -     oh
G|------- ------- ------- -------|------- ------- ------- -------|
D|-------------------------------|-------------------------------|
A|----------------------------6--|7---------------------------6--|
E|5-----------7-------7---9------|----7---7---7---7---7---9------|
  happy   when you dance     with me                      If  some-
  o     -     oh                  oh!
Verse:
G|------- ------- ------- -------|------- ------- ------- -------|
D|----------------6-------5------|4-------6---4------------------|
A|7-------9---7------------------|------------------------4---6--|
E|-------------------------------|----------------7---7----------|
  body  tries to  take my     place,                     Let's pre-


G|------- ------- ------- -------|------- ------- ------- -------|
D|----------------6-------5------|4-------6---4------------------|
A|7-------9---7------------------|------------------------4------|
E|-------------------------------|----------------7---7-------7--|
  tend we just    see his     face,                       In  this
              can't

G|------- ------- ------- -------|------- ------- ------- -------|
D|7-----------7------------------|-------------------------------|
A|-------------------------------|7---7---7----------------------|
E|----------------9---9---9---7--|------------7---9---9---9---7--|
  world   nothing I  would rather do,                     Cause I'm
      there's

G|------- ------- ------- -------|------- ------- ------- ----4--|
D|-------------------------------|-------------------------------|
A|-------------------------------|7-------7---------------7------|
E|5---5---5---5---7---7---7---7--|------------7---7---7----------|
  happy   just to dance      with you                    Just to

Refrain:
G|------- ------- ------- -------|------- ------- ------- -------|
D|-------------------------------|-------------------------------|
A|4-----------4-------2----------|-------------------------------|
E|------------------------4---0--|2---2---2---4---4---4---2---4--|
  Dance      with you                                         is
                                  o     -     oh

G|------- ------- ------- -------|------- ------- ------- -------|
D|-------------------------------|-------------------------------|
A|4-----------4-------2----------|------------------------2------|
E|------------------------4---0--|2-----------4-------4----------|
  eve  -  ry  -   thing   I       need                Before this
                                  o     -     oh

G|------- ------- ------- -------|------- ------- ------- -------|
D|-------------------------------|-------------------------------|
A|4-------2---4-------2----------|-------------------------------|
E|------------------------4---0--|2-----------4-------4---2---4--|
  dance   is  through, I  think   love you    too,        I'm so
                              I'll
  Aaaaaaaaaaaaaaaaaaaaaaaa        o     -     oh
G|------- ------- ------- -------|------- ------- ------- -------|
D|-------------------------------|-------------------------------|
A|----------------------------6--|7---------------------------6--|
E|5-----------7-------7---9------|--------7---7---7---7---9------|
  happy   when you dance     with me                      If  some-
  o     -     oh                  oh!
Verse:
G|------- ------- ------- -------|------- ------- ------- -------|
D|----------------6-------5------|4-------6---4------------------|
A|7-------9---7------------------|------------------------4---6--|
E|-------------------------------|----------------7---7----------|
  body  tries to  take my     place,                     Let's pre-


G|------- ------- ------- -------|------- ------- ------- -------|
D|----------------6-------5------|4-------4---6------------------|
A|7-------9---7------------------|------------------------4------|
E|-------------------------------|----------------7---7-------7--|
  tend we just    see his     face,                       In  this
              can't

G|------- ------- ------- -------|------- ------- ------- -------|
D|7---7---7----------------------|-------------------------------|
A|-------------------------------|7---7---7----------------------|
E|------------9---9---9---9---7--|------------9---9---9---9------|
  world   nothing I  would rather do,                     I   dis-
      there's

G|------- ------- ------- -------|
D|-------------------------------|
A|-------------------------------|
E|5-------5---5---7---7---7---5--|
  covered I'm in  love       with

Outro:
G|------- ------- ------- -------|------- ------- ------- -------|
D|-------------------------------|-------------------------------|
A|4-----------4-------2----------|-------------------------------|
E|------------------------4---0--|2-------2---4---4---4---2---4--|
  you                                                   Cause I'm
                                  o     -     oh

G|------- ------- ------- -------|------- ------- ------- -------|
D|-------------------------------|-------------------------------|
A|-------------------------------|4-----------4-------2----------|
E|5---5---5---5---7---7---7---5--|------------------------4---0--|
  happy   just to dance      with you


G|------- ------- ------- -------|------- ------- ------- -------|
D|-------------------------------|-------------------------------|
A|-------------------------------|-------------------------------|
E|2-----------4-------4---2---4--|5-----------7-------7---9------|
  o     -     oh                  o     -     oh


G|------- ------- ------- -------|------- ------- ------- -------|
D|-------------------------------|-------------------------------|
A|7------------------------------|-------------------------------|
E|-------------------------------|-------------------------------|
  oh!

Please e-mail me for any corrections.

            
            
Suggest correction
Creating personal tab
Creating personal tab
You can edit any tab online and save it as your Personal.

You can edit, replace or remove any tab part or add personal notes – all changes will be seen only by you.

Personal tabs can be accessed anytime from any device, even offline.
Learn more »
comments
print report bad tab
1 comment total.
0 reply
dmrmusic509 10 May 11, 2017 10:16 PM

It was written by George Harrison

guest
You may want to rate the tab now too:
select rating
Wanna post a correction for this tab? Suggest correction