Oops, an error
Loading. Please wait.

Im Looking Through You Tab

version 2
version 2

Whole song

Interactive

40,701 views 72 this week
8 commentsread comments
1 2 3 4 5
excellent!
x 15
add to favorites
launch autoscroll
font size
0
reset
how to read this tab
guitar tuner
Tab Pro tools
  • play this tab
  • loop segment
  • change instrument
  • show fretboard
  • metronome
Autoscroll
slow
fast
+/-
esc
set tempo
stop
Contributor
---------------------------------------------------------------------------
  THE BEATLES - I'M LOOKING THROUGH YOU (Lennon/McCartney)from RUBBER SOUL 
                album. Released 3rd December 1965.
---------------------------------------------------------------------------
  Tabbed by:PJVillanueva


(Use a capo on the first fret) 


Intro                                    
  G                           D
e|7------ 7------ 7--7--- 7-\-5--|---5--- 5------ 5------ -------|
B|8-------8-------8--8----8-\-7--|---7----7-------7-------0------|
G|7-------7-------7--7----7-\-7--|---7----7-------7-------0------|
D|0-------0-------0--0----0------|---0----0-------0-------0------|
A|-------------------------------|-------------------------------|
E|-------------------------------|-------------------------------|


  G               C               G               C
e|3------ 3------ 3--3--- 3--3---|3------ 3------ 3--3--- 3--3---|
B|0-------0-------1--1----1--0---|0-------0-------1--1----1--0---|
G|0-------0-------0--0----0--0---|0-------0-------0--0----0--0---|
D|0-------0-------2--2----2--0---|0-------0-------2--2----2--0---|
A|2-------2-------3--3----3------|2-------2-------3--3----3------|
E|3-------3----------------------|3-------3----------------------|

                                  Verse
  G               C               G               C       Em
e|3------ 3------ 3--3--- 3--3---|3------ 3------ ------- -------|
B|0-------0-------1--1----1--0---|0-------0-------1-------0------|
G|0-------0-------0--0----0--0---|0-------0-------0-------0------|
D|0-------0-------2--2----2--0---|0-------0-------2-------2------|
A|2-------2-------3--3----3------|2-------2-------3-------2------|
E|3-------3----------------------|3-------3----------------------|
                                          I'm      looking

  Am                              Em
e|0------ 0------ 0--0--- 0------|------- 3------ 3--3--- 3------|
B|1-------1-------1--1----1------|--------0-------0--0----0------|
G|2-------2-------2--2----2------|0-------0-------0--0----0------|
D|2-------2-------2--2----2------|2-------2-------2--2----2------|
A|0-------0-------0-------0------|2-------2-------2--2----2------|
E|-------------------------------|0-------0-------0-------0------|
  through     you                         where   did     you  go

  D                         Dsus4 G               C       Em
e|2------ 2------ 2--2--- 2--3---|3------ 3------ ------- -------|
B|3-------3-------3--3----3--3---|0-------0-------1-------0------|
G|2-------2-------2--2----2--2---|0-------0-------0-------0------|
D|0-------0-------0-------0------|0-------0-------2-------2------|
A|-------------------------------|2-------2-------3-------2------|
E|-------------------------------|3-------3----------------------|
                                          I       thought  I

  Am                              Em
e|0------ 0--0--- 0--0--- 0--0---|0------ 0--0--- 0--0--- 0------|
B|1-------1--1----1--1----1--0---|0-------0--0----0--0----0------|
G|2-------2--2----2--2----2--0---|0-------0--0----0--0----0------|
D|2-------2--2----2--2----2--0---|2-------2--2----2--2----2------|
A|0-------0-------0-------0------|2-------2--2----2--2----2------|
E|-------------------------------|0-------0-------0-------0------|
   knew      you,                         what     did I     know

  D                               Em7
e|2------ 2--2--- 2--2--- 2------|------- ------- ------- -------|
B|3-------3--3----3--3----3------|0-------3--3----3--3----3------|
G|2-------2--2----2--2----2------|0-------0--0----0--0----0------|
D|0-------0-------0-------0------|2-------2--2----2--2----2------|
A|-------------------------------|2-------2--2----2--2----2------|
E|-------------------------------|0-------0-------0-------0------|
                                          You  don't   look 

  Asus4           Am              G
e|------- ------- ------- -------|------- 3------ 3--3--- 3------|
B|3-------3-------1--1----1------|--------3-------3--3----3------|
G|2-------2-------2--2----2------|0-------0-------0--0----0------|
D|2-------2-------2--2----2------|0-------0-------0--0----0------|
A|0-------0-------0-------0------|2-------2-------2--2----2------|
E|-------------------------------|3-------3-------3--3----3------|
  different,              but     you             have       changed

  D                               G               C       Em
e|2------ 2------ 2--2--- 2------|------- 3------ ------- -------|
B|3-------3-------3--3----3------|--------3-------1-------0------|
G|2-------2-------2--2----2------|0-------0-------0-------0------|
D|0-------0-------0-------0------|0-------0-------2-------2------|
A|-------------------------------|2-------2-------3-------2------|
E|-------------------------------|3-------3----------------------|
                                           I'm    looking 

  Am                              C
e|0------ 0--0--- 0--0--- 0------|3------ 3--3--- 3--3--- 3--3---|
B|1-------1--1----1--1----1------|1-------1--1----1--1----1--1---|
G|2-------2--2----2--2----2------|0-------0--0----0--0----0--0---|
D|2-------2--2----2--2----2------|2-------2--2----2--2----2--2---|
A|0-------0-------0-------0------|3-------3--3----3--3----3--3---|
E|-------------------------------|-------------------------------|
  through     you,                        you're   not    the  same

  G               C               G               C 
e|3------ 3------ 3--3--- 3--3---|3------ 3------ 3--3--- 3--3---|
B|3-------3-------1--1----1--0---|3-------3-------1--1----1--0---|
G|0-------0-------0--0----0--0---|0-------0-------0--0----0--0---|
D|0-------0-------2--2----2--0---|0-------0-------2--2----2--0---|
A|2-------2-------3--3----3------|2-------2-------3--3----3------|
E|3-------3----------------------|3-------3----------------------|

e|3------ 3------ 1-R-0-- -------|3------ 3------ 1-R-0-- -------|
B|3-------3-------------3--------|3-------3-------------3--------|
G|------------------------3--4---|------------------------3--4---|
D|-------------------------------|-------------------------------|
A|-------------------------------|-------------------------------|
E|-------------------------------|-------------------------------|

                                  Verse
  G               C               G               C       Em
e|3------ 3------ 3--3--- 3--3---|3------ 3------ ------- -------|
B|3-------3-------1--1----1--0---|3-------3-------1-------0------|
G|0-------0-------0--0----0--0---|0-------0-------0-------0------|
D|0-------0-------2--2----2--0---|0-------0-------2-------2------|
A|2-------2-------3--3----3------|2-------2-------3-------2------|
E|3-------3----------------------|3-------3----------------------|
                                          Your    lips    are 
e|3------ 3------ 1-R-0-- -------|3------ ------- ------- -------|
B|3-------3-------------3--------|3------------------------------|
G|------------------------3--4---|-------------------------------|
D|-------------------------------|-------------------------------|
A|-------------------------------|-------------------------------|
E|-------------------------------|-------------------------------|


  Am                              Em      
e|0------ 0------ 0--0--- 0------|------- 3------ 3--3--- 3------|
B|1-------1-------1--1----1------|--------0-------0--0----0------|
G|2-------2-------2--2----2------|0-------0-------0--0----0------|
D|2-------2-------2--2----2------|2-------2-------2--2----2------|
A|0-------0-------0-------0------|2-------2-------2--2----2------|
E|-------------------------------|0-------0-------0-------0------|
  mo.........ving,                        I       cannot      hear

  D                         Dsus4 G               C       Em
e|2------ 2--2--- 2--3--- ---3---|3------ 3------ ------- -------|
B|3-------3--3----3--3-------3---|0-------0-------1-------0------|
G|2-------2--2----2--2-------2---|0-------0-------0-------0------|
D|0-------0-------0-------0------|0-------0-------2-------2------|
A|-------------------------------|2-------2-------3-------2------|
E|-------------------------------|3-------3----------------------|
                                          Your    voice   is 

  Am                              Em
e|0------ 0--0--- 0--0--- 0--0---|0------ 0--0--- 0--0--- 0--0---|
B|1-------1--1----1--1----1--0---|0-------0--0----0--0----0--0---|
G|2-------2--2----2--2----2--0---|0-------0--0----0--0----0--0---|
D|2-------2--2----2--2----2--0---|2-------2--2----2--2----2--2---|
A|0-------0-------0-------0------|2-------2--2----2--2----2--2---|
E|-------------------------------|0-------0-------0-------0------|
  soo........thing,                       but the words   aren't 

  D                  Dsus4        Em      Em7
e|2------ 2--2--- 2--3--- -------|------- ------- ------- -------|
B|3-------3--3----3--3----3------|0-------3--3----3--3----3--3---|
G|2-------2--2----2--2----2------|0-------0--0----0--0----0--0---|
D|0-------0-------0-------0------|2-------2--2----2--2----2--2---|
A|-------------------------------|2-------2--2----2--2----2--2---|
E|-------------------------------|0-------0-------0-------0------|
  clear                                   You  don't  sound 

  Asus4           Am              G
e|------- ------- ------- -------|------- 3------ 3--3--- 3------|
B|3-------3-------1--1----1------|--------3-------3--3----3------|
G|2-------2-------2--2----2------|0-------0-------0--0----0------|
D|2-------2-------2--2----2------|0-------0-------0--0----0------|
A|0-------0-------0-------0------|2-------2-------2--2----2------|
E|-------------------------------|3-------3-------3--3----3------|
  di.........fferent,     I've    learned         the          game

  D                  Dsus4        G               C       Em
e|2------ 2------ 2--3--- ---3---|------- 3------ ------- -------|
B|3-------3-------3--3----3--3---|--------3-------1-------0------|
G|2-------2-------2--2----2--2---|0-------0-------0-------0------|
D|0-------0-------0-------0------|0-------0-------2-------2------|
A|-------------------------------|2-------2-------3-------2------|
E|-------------------------------|3-------3----------------------|
                                          I'm     looking 

  Am                              C
e|0------ 0--0--- 0--0--- 0------|3------ 3--3--- 3--3--- 3------|
B|1-------1--1----1--1----1------|1-------1--1----1--1----1------|
G|2-------2--2----2--2----2------|0-------0--0----0--0----0------|
D|2-------2--2----2--2----2------|2-------2--2----2--2----2------|
A|0-------0-------0-------0------|3-------3--3----3--3----3------|
E|-------------------------------|-------------------------------|
  through     you,                         you're  not    the  same

  G               C               G               C
e|3------ 3------ 3--3--- 3--3---|3------ 3------ 3--3--- 3--3---|
B|3-------3-------1--1----1--0---|3-------3-------1--1----1--0---|
G|0-------0-------0--0----0--0---|0-------0-------0--0----0--0---|
D|0-------0-------2--2----2--0---|0-------0-------2--2----2--0---|
A|----------------3--3----3------|2-------2-------3--3----3------|
E|3-------3----------------------|3-------3----------------------|

e|3------ 3------ 1-R-0-- -------|3------ 3------ 1-R-0-- -------|
B|3-------3-------------3--------|3-------3-------------3--------|
G|------------------------3--4---|------------------------3--4---|
D|-------------------------------|-------------------------------|
A|-------------------------------|-------------------------------|
E|-------------------------------|-------------------------------|


  G               C               G               C
e|3------ 3------ 3--3--- 3--3---|3------ 3------ 3--3--- 3--3---|
B|3-------3-------1--1----1--0---|3-------3-------1--1----1--0---|
G|0-------0-------0--0----0--0---|0-------0-------0--0----0--0---|
D|0-------0-------2--2----2--0---|0-------0-------2--2----2--0---|
A|2-------2-------3--3----3------|2-------2-------3--3----3------|
E|3-------3----------------------|3-------3----------------------|

e|3------ 3------ 1-R-0-- -------|3------ 3------ 1-R-0-- -------|
B|3-------3-------------3--------|3-------3-------------3--------|
G|------------------------3--4---|------------------------3--4---|
D|-------------------------------|-------------------------------|
A|-------------------------------|-------------------------------|
E|-------------------------------|-------------------------------|


Bridge
  C       
e|3------ 3--3--- 3--3--- 3------|3------ 3--3--- 3--3--- 3------|
B|1-------1--1----1--1----1------|1-------1--1----1--1----1------|
G|0-------0--0----0--0----0------|0-------0--0----0--0----0------|
D|2-------2--2----2--2----2------|2-------2--2----2--2----2------|
A|3-------3--3----3--3----3------|3-------3--3----3--3----3------|
E|-------------------------------|-------------------------------|
  Why,            tell    me   why,       did you    not 


  G
e|3------ 3------ 3--3--- 3------|3------ 3------ 3--3--- 3--3---|
B|3-------3-------3--3----3------|3-------3-------3--3----3--3---|
G|0-------0-------0--0----0------|0-------0-------0--0----0--0---|
D|0-------0-------0--0----0------|0-------0-------0--0----0--0---|
A|2-------2-------2-------2------|2-------2-------2-------2------|
E|3-------3-------3-------3------|3-------3-------3-------3------|
  treat   me  right? 

  C
e|3------ 3--3--- 3--3--- 3------|3------ 3--3--- 3--3--- 3------|
B|1-------1--1----1--1----1------|1-------1--1----1--1----1------|
G|0-------0--0----0--0----0------|0-------0--0----0--0----0------|
D|2-------2--2----2--2----2------|2-------2--2----2--2----2------|
A|3-------3--3----3--3----3------|3-------3--3----3--3----3------|
E|-------------------------------|-------------------------------|
  Love            has     a   nas.........ty ha.......bit of 

  Dsus4                           D
e|3------ 3------ 3--3--- 3--3---|2------ 2--2--- 2--2--- 2------|
B|3-------3-------3--3----3--3---|3-------3--3----3--3----3------|
G|2-------2-------2--2----2--2---|2-------2--2----2--2----2------|
D|0-------0-------0-------0------|0-------0-------0-------0------|
A|-------------------------------|-------------------------------|
E|-------------------------------|-------------------------------|
  disa.......ppea.........ring    over........night



Verse
G      C   Em   Am    Em             D
You're thinking of me, the same old way
G   C   Em Am    Em            D
You were above me, but not today
Em       Am            G           D
The only difference is you're down there
G   C    Em Am           C             G  C  G  C  G  C  G  
I'm looking through you, any other way


Bridge
C                             G
Why, tell me why, did you not treat me right?
C                         Dsus4        D
Love has a nasty habit of disappearing overnight


Verse
G   C    Em Am         Em               D
I'm looking through you, where did you go
G C      Em Am       Em            D
I thought I knew you, what did I know
Em7           Asus4 Am        G        D
You don't look different, but you have changed
G   C    Em Am           C              *  G  C  G  C  G  C  G  C
I'm looking through you, you're not the same
                                           G  C  G  C  G  C  G  C

                                           G  C  G  C



  *  Coda

  G               C               G               C
e|3------ 3------ 3--3--- 3--3---|3------ 3------ 3--3--- 3--3---|
B|3-------3-------1--1----1--0---|3-------3-------1--1----1--0---|
G|0-------0-------0--0----0--0---|0-------0-------0--0----0--0---|
D|0-------0-------2--2----2--0---|0-------0-------2--2----2--0---|
A|----------------3--3----3------|2-------2-------3--3----3------|
E|3-------3----------------------|3-------3----------------------|
                             Yeah            Oh  baby  you've changed
e|3------ 3------ 1-R-0-- -------|3------ 3------ 1-R-0-- -------|
B|3-------3-------------3--------|3-------3-------------3--------|
G|------------------------3--4---|------------------------3--4---|
D|-------------------------------|-------------------------------|
A|-------------------------------|-------------------------------|
E|-------------------------------|-------------------------------|


  G               C               G               C
e|3------ 3------ 3--3--- 3--3---|3------ 3------ 3--3--- 3--3---|
B|3-------3-------1--1----1--0---|3-------3-------1--1----1--0---|
G|0-------0-------0--0----0--0---|0-------0-------0--0----0--0---|
D|0-------0-------2--2----2--0---|0-------0-------2--2----2--0---|
A|2-------2-------3--3----3------|2-------2-------3--3----3------|
E|3-------3----------------------|3-------3----------------------|
                                          Ah          I'm  looking
e|3------ 3------ 1-R-0-- -------|3------ 3------ 1-R-0-- -------|
B|3-------3-------------3--------|3-------3-------------3--------|
G|------------------------3--4---|------------------------3--4---|
D|-------------------------------|-------------------------------|
A|-------------------------------|-------------------------------|
E|-------------------------------|-------------------------------|



  G               C               G               C
e|3------ 3------ 3--3--- 3--3---|3------ 3------ 3--3--- 3--3---|
B|3-------3-------1--1----1--0---|3-------3-------1--1----1--0---|
G|0-------0-------0--0----0--0---|0-------0-------0--0----0--0---|
D|0-------0-------2--2----2--0---|0-------0-------2--2----2--0---|
A|----------------3--3----3------|2-------2-------3--3----3------|
E|3-------3----------------------|3-------3----------------------|
  through you               yeah                     I'm  looking
e|3------ 3------ 1-R-0-- -------|3------ 3------ 1-R-0-- -------|
B|3-------3-------------3--------|3-------3-------------3--------|
G|------------------------3--4---|------------------------3--4---|
D|-------------------------------|-------------------------------|
A|-------------------------------|-------------------------------|
E|-------------------------------|-------------------------------|


  G               C               G               C
e|3------ 3------ 3--3--- 3--3---|3------ 3------ 3--3--- 3--3---|
B|3-------3-------1--1----1--0---|3-------3-------1--1----1--0---|
G|0-------0-------0--0----0--0---|0-------0-------0--0----0--0---|
D|0-------0-------2--2----2--0---|0-------0-------2--2----2--0---|
A|2-------2-------3--3----3------|2-------2-------3--3----3------|
E|3-------3----------------------|3-------3----------------------|
  Through you                                        Ah  you've changed
e|3------ 3------ 1-R-0-- -------|3------ 3------ 1-R-0-- -------|
B|3-------3-------------3--------|3-------3-------------3--------|
G|------------------------3--4---|------------------------3--4---|
D|-------------------------------|-------------------------------|
A|-------------------------------|-------------------------------|
E|-------------------------------|-------------------------------|



  G               C               G               C
e|3------ 3------ 3--3--- 3--3---|3------ 3------ 3--3--- 3--3---|
B|3-------3-------1--1----1--0---|3-------3-------1--1----1--0---|
G|0-------0-------0--0----0--0---|0-------0-------0--0----0--0---|
D|0-------0-------2--2----2--0---|0-------0-------2--2----2--0---|
A|2-------2-------3--3----3------|2-------2-------3--3----3------|
E|3-------3----------------------|3-------3----------------------|
         you've changed  you've changed
e|3------ 3------ 1-R-0-- -------|3------ 3------ 1-R-0-- -------|
B|3-------3-------------3--------|3-------3-------------3--------|
G|------------------------3--4---|------------------------3--4---|
D|-------------------------------|-------------------------------|
A|-------------------------------|-------------------------------|
E|-------------------------------|-------------------------------|

...............................Fade...............................



        B  Bend
        R  Release
        /  slide up
        \  slide down
        H  hammer-on
        P  pull-off
        ~  vibrato
        +  harmonic
        x  Mute note
        . - play note like a dot in standard notation
        ^ - ties two notes together
comments
print report bad tab
8 comments total. Showing first comments.
0 reply
Dahmir wrote on April 22 2005, 12:00 am

fantastic

0 reply
astonmartini wrote on July 1 2006, 11:43 am

ver gut tab

+1 reply
gbeatle wrote on June 11 2007, 12:46 pm

Hi! I'd like to write a little something: I think in the end of the verses before the bridges, in the last measure, there's no "G-C", only "G" chord. Sorry if I heard it wrong.

I want to post or [tab]
guest
You may want to rate the tab now too:
select rating
Please do not post tabs as comments. Select "correction" instead!