Oops, an error
Loading. Please wait.

Im So Tired Tab

version 1
version 1

Whole song

Interactive

60,847 views 75 this week
5 commentsread comments
1 2 3 4 5
excellent!
x 17
add to favorites
launch autoscroll
font size
0
reset
how to read this tab
guitar tuner
Tab Pro tools
  • play this tab
  • loop segment
  • change instrument
  • show fretboard
  • metronome
×
Best way to learn
"Im So Tired"
Autoscroll
slow
fast
+/-
esc
set tempo
stop
Contributor
--------------------------------------------------------------------
  THE BEATLES - I'M SO TIRED (Lennon/McCartney) From the WHITE ALBUM.
                Released on November 22nd 1968.
--------------------------------------------------------------------
  Tabbed by:PJVillanueva


I'm so tired, I haven't slept a wink
I'm so tired, my mind is on the blink
I wonder should I get up and fix myself a drink
No,no,no.

I'm so tired I don't know what to do
I'm so tired my mind is set on you
I wonder should I call you but I know what you'd do

You'd say I'm putting you on
But it's no joke, it's doing me harm
You know I can't sleep, I can't stop my brain
You know it's three weeks, I'm going insane
You know I'd give you everything I've got
for a little peace of mind

I'm so tired, I'm feeling so upset
Although I'm so tired I'll have another cigarette
And curse Sir Walter Raleigh
He was such a stupid get.

You'd say I'm putting you on
But it's no joke, it's doing me harm
You know I can't sleep, I can't stop my brain
You know it's three weeks, I'm going insane
You know I'd give you everything I've got
for a little peace of mind
I'd got for a little peace of mind
I'd got for a little peace of mind



e|------- ------- ------- -------|------- ------- ------- -------|
B|-------------------------------|-------------------------------|
G|-------------------------------|-------------------------------|
D|-------------------------------|-------------------------------|
A|-------------------------------|-------------------------------|
E|-------------------------------|--------------------0---2---4--|
                                                              I'm

  A               G#              D               E7
e|5---5-5 5-5-5-- 4---4-- 4---4--|2---2-- 2---2-- 0---0-- 0---0--|
B|5---5-5-5-5-5---4---4---4---4--|3---3---3---3---3---3---3---3--|
G|6---6-6-6-6-6---5---5---5---5--|2---2---2---2---1---1---1---1--|
D|7---7-7-7-7-7---6---6---6---6--|0---0---0---0---2---2---2---2--|
A|7---7-7-7-7-7---6---6---6---6--|----------------2---2---2---2--|
E|5---5-5-5-5-5---4---4---4---4--|----------------0---0---0---0--|
  so              tired,      I   haven't slept a wink        I'm


  A               F#m             D               E
e|5---5-- 5---5-- 2---2-2 2---2--|2---2-2 2---2-- 0---0-- 0---0--|
B|5---5---5---5---2---2-2-2---2--|3---3-3-3---3---3---3---3---3--|
G|6---6---6---6---2---2-2-2---2--|2---2-2-2---2---1---1---1---1--|
D|7---7---7---7---4---4-4-4---4--|0---0-0-0---0---2---2---2---2--|
A|7---7---7---7---4---4-4-4---4--|----------------2---2---2---2--|
E|5---5---5---5---2---2-2-2---2--|----------------0---0---0---0--|
  so                  tired,   my mind is  on the blink       I


  A               Eaug5           F#m             Dm
e|5---5-- 5---5-- ------- -------|2---2-- 2---2-- 5---5-- 5---5--|
B|5---5---5---5---5---5---5---5--|2---2---2---2---6---6---6---6--|
G|6---6---6---6---5---5---5---5--|2---2---2---2---7---7---7---7--|
D|7---7---7---7---6---6---6---6--|4---4---4---4---7---7---7---7--|
A|7---7---7---7---7---7---7---7--|4---4---4---4---5---5---5---5--|
E|5---5---5---5------------------|2---2---2---2------------------|
  wonder should I get up      and fix myself  a drink     No no no
e|------- 5------ ------- 4------|------- 2------ 5---5-- 5---5--|
B|--------5---------------5------|--------2-------6---6---6---6--|
G|--------6---------------5------|--------2-------7---7---7---7--|
D|--------7---------------6------|--------4----------------------|
A|--------7----------------------|--------4----------------------|
E|--------5----------------------|--------2----------------------|



e|5---5-- 5---5--|
B|6---6---6---6--|
G|7---7---7---7--|
D|7---7---7---7--|
A|5---5---5---5--|
E|---------------|
              I'm
e|5---5-- 5---5--|
B|6---6---6---6--|
G|7---7---7---7--|
D|---------------|
A|---------------|
E|---------------|




  A               G#              D               E
e|5---5-- 5---5-- 4---4-- 4-4-4--|2---2-- 2---2-- 0---0-- 0---0--|
B|5---5---5---5---4---4---4-4-4--|3---3---3---3---3---3---3---3--|
G|6---6---6---6---5---5---5-5-5--|2---2---2---2---1---1---1---1--|
D|7---7---7---7---6---6---6-6-6--|0---0---0---0---2---2---2---2--|
A|7---7---7---7---6---6---6-6-6--|----------------2---2---2---2--|
E|5---5---5---5---4---4---4-4-4--|----------------0---0---0---0--|
  so              tired       I   don't know what to do       I'm

  A               F#m             D               E
e|5---5-- 5---5-- 2---2-2 2---2--|2---2-- 2---2-- 0-----0 0-0-0--|
B|5---5---5---5---2---2-2-2---2--|3---3---3---3---3-----3-3-3-3--|
G|6---6---6---6---2---2-2-2---2--|2---2---2---2---1-----1-1-1-1--|
D|7---7---7---7---4---4-4-4---4--|0---0---0---0---2-----2-2-2-2--|
A|7---7---7---7---4---4-4-4---4--|----------------2-----2-2-2-2--|
E|5---5---5---5---2---2-2-2---2--|----------------0-----0-0-0-0--|
  so               tired      my  mind is set on you          I

  A               Eaug5           F#m             Dm
e|5---5-- 5---5-- ------- -------|2---2-- 2---2-- 5---5-- 5---5--|
B|5---5---5---5---5---5---5---5--|2---2---2---2---6---6---6---6--|
G|6---6---6---6---5---5---5---5--|2---2---2---2---7---7---7---7--|
D|7---7---7---7---6---6---6---6--|4---4---4---4---7---7---7---7--|
A|7---7---7---7---7---7---7---7--|4---4---4---4---5---5---5---5--|
E|5---5---5---5------------------|2---2---2---2------------------|
  wonder should I call  you but I know what you'd do
e|------- 5------ ------- 2------|------- 2------ 5---5-- 5------|
B|--------5---------------5------|--------2-------6---6---6------|
G|--------6---------------5------|--------2-------7---7---7---7--|
D|--------7---------------6------|--------4----------------------|
A|--------7----------------------|--------4----------------------|
E|--------5----------------------|--------2----------------------|

e|------- ------- ------- ----4--|5------ ----7-- 8------ -------|
B|5---------------5-------7------|7---------------6--------------|
G|6---------------5--------------|6---------------7--------------|
D|7---------------6--------------|-------------------------------|
A|-------------------------------|-------------------------------|
E|-------------------------------|-------------------------------|




e|5---5-- 5---5--|
B|6---6---6---6--|
G|7---7---7---7--|
D|7---7---7---7--|
A|5---5---5---5--|
E|---------------|
        
e|7------ 5------|
B|6-------6------|
G|7-------7------|
D|---------------|
A|---------------|
E|---------------|



e|0---0-- 2---2-- ------- -------|0---0-- 2---2-- ------- -------|
B|2---2---2---2---------------5--|2---2---2---2---------------5--|
G|2---2---2---2---------4/6------|2---2---2---2---------4/6------|
D|2---2---2---2------------------|2---2---2---2------------------|
A|0---0---0---0------------------|0---0---0---0------------------|
E|-------------------------------|-------------------------------|
  You'd say I'm putting you on...................................
e|------- ------- ------- -------|------- ------- ------- -------|
B|-------------------------------|-------------------------------|
G|-------------------------------|-------------------------------|
D|7-------7-------7--------------|7---7---7-------7--------------|
A|7-------7-------7--------------|7---7---7-------7--------------|
E|5-------5-------5--------------|5---5---5-------5--------------|

e|------- ------- ------- -------|------- ------- ------- -------|
B|5------------------------------|-------------------------------|
G|6------------------------------|-------------------------------|
D|7------------------------------|-------------------------------|
A|-------------------------------|-------------------------------|
E|-------------------------------|-------------------------------|




e|0---0-- 0---0-- ------- -------|0---0-- 0---0-- ------- -------|
B|0---0---2---2---------------5--|0---0---2---2---------------5--|
G|1---1---1---1---------4/6------|1---1---1---1---------4/6------|
D|2---2---2---2------------------|2---2---2---2------------------|
A|2---2---2---2------------------|2---2---2---2------------------|
E|-------------------------------|-------------------------------|
  can't sleep I can't stop my brain..............................
e|------- ------- ------- -------|------- ------- ------- -------|
B|-------------------------------|-------------------------------|
G|-------------------------------|-------------------------------|
D|2---2---2-------2--------------|2---2---2-------2--------------|
A|2---2---2-------2--------------|2---2---2-------2--------------|
E|0---0---0-------0--------------|0---0---0-------0--------------|

e|------- ------- ------- -------|------- ------- ------- -------|
B|-------------------------------|-------------------------------|
G|4------------------------------|-------------------------------|
D|6------------------------------|-------------------------------|
A|7------------------------------|-------------------------------|
E|-------------------------------|-------------------------------|




e|------- ------- ------- -------|------- ------- ------- -------|
B|-------------------------------|5------------------------------|
G|7---7---7---7---7---7-------5--|6------------------------------|
D|7---7---9---7---7---7-7/9------|7------------------------------|
A|5---5---5---5---5---5----------|7------------------------------|
E|-------------------------------|5-------------------0---2---4--|
  give you ............peace of mind                          I'm
e|------- ------- ------- -------|------- ------- ------- -------|
B|-------------------------------|-------------------------------|
G|2------------------------------|-------------------------------|
D|4------------------------------|-------------------------------|
A|5------------------------------|-------------------------------|
E|-------------------------------|-------------------------------|



  A               G#              D               E
e|5---5-5 5-5-5-5 4---4-4 4-----2|2-----2 2------ 0---0-- 0-0-0--|
B|5---5-5-5-5-5-5-4---4-4-4-----3|3-----3-3-------3---3---3-3-3--|
G|6---6-6-6-6-6-6-5---5-5-5-----2|2-----2-2-------1---1---1-1-1--|
D|7---7-7-7-7-7-7-6---6-6-6-----0|0-----0-0-------2---2---2-2-2--|
A|7---7-7-7-7-7-7-6---6-6-6------|----------------2---2---2-2-2--|
E|5---5-5-5-5-5-5-4---4-4-4------|----------------0---0---0-0-0--|
  so              tired       I'm feeling so upset           Although

  A               F#m             D               E
e|5---5-5 5-5-5-- 2---2-2 2---2--|2---2-2 2---2-- 0---0-0 0-0-0--|
B|5---5-5-5-5-5---2---2-2-2---2--|3---3-3-3---3---3---3-3-3-3-3--|
G|6---6-6-6-6-6---2---2-2-2---2--|2---2-2-2---2---1---1-1-1-1-1--|
D|7---7-7-7-7-7---4---4-4-4---4--|0---0-0-0---0---2---2-2-2-2-2--|
A|7---7-7-7-7-7---4---4-4-4---4--|----------------2---2-2-2-2-2--|
E|5---5-5-5-5-5---2---2-2-2---2--|----------------0---0-0-0-0-0--|
                    I'm so tired  I'll have another cigarette and

  A               Eaug5           F#m             Dm
e|5---5-- 5---5-- ------- -------|2---2-- 2---2-- 5-5---5 5---5--|
B|5---5---5---5---5---5---5---5--|2---2---2---2---6-6---6-6---6--|
G|6---6---6---6---5---5---5---5--|2---2---2---2---7-7---7-7---7--|
D|7---7---7---7---6---6---6---6--|4---4---4---4---7-7---7-7---7--|
A|7---7---7---7---7---7---7---7--|4---4---4---4---5-5---5-5---5--|
E|5---5---5---5------------------|2---2---2---2------------------|
  curse Sir Walter Raleigh he was such a stupid get
e|------- 5------ ------- 4------|------- 2------ ------- -------|
B|--------5---------------5------|--------2----------------------|
G|--------6---------------5------|--------2----------------------|
D|--------7---------------6------|--------4----------------------|
A|--------7----------------------|--------4----------------------|
E|--------5----------------------|--------2----------------------|  

e|------- ------- ------- -------|5------ ----7-- 8------ 7------|
B|5---------------5---7---9-7-5--|7---------------6--------------|
G|6---------------5--------------|6---------------7--------------|
D|7---------------6--------------|-------------------------------|
A|-------------------------------|-------------------------------|
E|-------------------------------|-------------------------------|





e|5---5-5 5-5-5--|
B|6---6-6-6-6-6--|
G|7---7-7-7-7-7--|
D|7---7-7-7-7-7--|
A|5---5-5-5-5-5--|
E|---------------|

e|------- 1------|
B|8P7P6---1H2H3--|
G|5-------2------|
D|7-------0------|
A|5--------------|
E|---------------|

e|5------ -------|
B|6-------6------|
G|7--------------|
D|---------------|
A|---------------|
E|---------------|



e|0---0-- 2---2-- ------- -------|0---0-- 2---2-- ------- -------|
B|2---2---2---2---------------5--|2---2---2---2---------------5--|
G|2---2---2---2---------4/6------|2---2---2---2---------4/6------|
D|2---2---2---2------------------|2---2---2---2------------------|
A|0---0---0---0------------------|0---0---0---0------------------|
E|-------------------------------|-------------------------------|
  You'd say I'm putting you on...................................
e|------- ------- ------- -------|------- ------- ------- -------|
B|-------------------------------|-------------------------------|
G|-------------------------------|-------------------------------|
D|7-------7-------7--------------|7---7---7-------7--------------|
A|7-------7-------7--------------|7---7---7-------7--------------|
E|5-------5-------5--------------|5---5---5-------5--------------|

e|------- ------- ------- -------|------- ------- ------- -------|
B|5------------------------------|-------------------------------|
G|6------------------------------|-------------------------------|
D|7------------------------------|-------------------------------|
A|-------------------------------|-------------------------------|
E|-------------------------------|-------------------------------|



e|0---0-- 0---0-- ------- -------|0---0-- 0---0-- ------- -------|
B|0---0---2---2---------------5--|0---0---2---2---------------5--|
G|1---1---1---1---------4/6------|1---1---1---1---------4/6------|
D|2---2---2---2------------------|2---2---2---2------------------|
A|2---2---2---2------------------|2---2---2---2------------------|
E|-------------------------------|-------------------------------|
  can't sleep can't stop my brain................................
e|------- ------- ------- -------|------- ------- ------- -------|
B|-------------------------------|-------------------------------|
G|-------------------------------|-------------------------------|
D|2---2---2-------2--------------|2---2---2-------2--------------|
A|2---2---2-------2--------------|2---2---2-------2--------------|
E|0---0---0-------0--------------|0---0---0-------0--------------|

e|------- ------- ------- -------|------- ------- ------- -------|
B|-------------------------------|-------------------------------|
G|4------------------------------|-------------------------------|
D|6------------------------------|-------------------------------|
A|7------------------------------|-------------------------------|
E|-------------------------------|-------------------------------|



e|------- ------- ------- -------|------- ------- ------- -------|
B|-------------------------------|-------------------------------|
G|7---7---7---7---7---7-------5--|6------------------------------|
D|7---7---9---7---7---7-7/9------|7------------------------------|
A|5---5---5---5---5---5----------|7------------------------------|
E|-------------------------------|5------------------------------|
  give you...............peace of mind
e|------- ------- ------- -------|------- ------- ------- -------|
B|-------------------------------|-------------------------------|
G|2------------------------------|-------------------------------|
D|4------------------------------|-------------------------------|
A|5------------------------------|-------------------------------|
E|-------------------------------|-------------------------------|



e|------- ------- ------- -------|------- ------- ------- -------|
B|-------------------------------|-------------------------------|
G|7---7---7---7---7---7---7---5--|6------------------------------|
D|7---7---9---7---7---7---9---7--|7-------------------7---7\--x-7|
A|5---5---5---5---5---5---5---5--|7-------------------7---7\--x-7|
E|-------------------------------|5-------------------5---5\--x-5|
  give you...............peace of mind


e|------- ------- ------- -------|------- ------- ------- -------|
B|-------------------------------|-------------------------------|
G|7---7---7---7---7---7----------|-------------------------------|
D|7---7---9---7---7---7-7/9------|7------------------------------|
A|5---5---5---5---5---5----------|7------------------------------|
E|-------------------------------|5------------------------------|
  give you...............peace of mind


        B  Bend
        R  Release
        /  slide up
        \  slide down
        H  hammer-on
        P  pull-off
        ~  vibrato
        +  harmonic
        x  Mute note
        . - play note like a dot in standard notation
        ^ - ties two notes together
comments
print report bad tab
5 comments total. Showing first comments.
0 reply
Wackstrings wrote on August 20 2004, 12:00 am

Awesome tab. I had fun playing it. But at the first line you wrote is Bass not guitar.

0 reply
PJVILL wrote on October 21 2005, 12:45 am

You're right. I just wrote it as an intro guide.

0 reply
benjidude945 wrote on May 26 2008, 09:12 pm

perfect job
thanks a lot

I want to post or [tab]
guest
You may want to rate the tab now too:
select rating
Please do not post tabs as comments. Select "correction" instead!