Oops, an error
Loading. Please wait.
We have an official In My Life tab made by UG professional guitarists. Check out the tab »
×
310,441 views 414 this week
8 commentsread comments
1 2 3 4 5
x 72
add to favorites
×
Save as Personal and add changes to this tab that will be seen only by you. Learn more ›
×
You can save this tab as Personal to edit and correct it or add notes. All changes will be seen only by you. Learn more »
save as personal
new!
launch autoscroll
font size
0
reset
how to read this tab
guitar tuner
backing track
0:00
0:00
Autoscroll
slow
fast
+/-
esc
set tempo
stop
[Main Riff]

e|----5-----0-4-|
B|--2---2-3-----|
G|--2-----------|
D|--------------|
A|--------------|
E|--------------|


[Verse]

          A             F#m
There are places I'll remember
       Bm Dm       A
All my life though some have changed
         A            F#m
Some for ever not for better
          Bm Dm     A
Some have gone, and some remain.


[Chorus]

          F#m               Bm
All these places have their moments
     G                     A
With lovers and friends, I still can recall
         F#m               Bm
Some are dead and some are living
  D  Dm         A
In my life, I've loved them all
  

[Main Riff] 

e|----5-----0-4-|
B|--2---2-3-----|
G|--2-----------|
D|--------------|
A|--------------|
E|--------------|


[Verse]

          A             F#m
But of all these friends and lovers
       Bm Dm       A
There is no one compared with you
         A            F#m
And these memories lose their meaning
          Bm Dm     A
When I think of love as something new


[Chorus]

          F#m               Bm
Thought I know I'll never lose affection
     G                     A
For people and things that went before
         F#m               Bm
I know I'll often stop and think about them
  D  Dm         A
In my life I'll love you more

[Solo]


[Chorus]

         F#m               Bm
Thought I know I'll never lose affection
     G                     A
For people and things that went before
         F#m               Bm
I know I'll often stop and think about them
  D  Dm         A
In my life I'll love you more


e|----5-----0-4-|
B|--2---2-3-----|
G|--2-----------|
D|--------------|
A|--------------|
E|--------------|

 Dm (played as a bar chord at the 5th fret)
In my life I'll love you more


[Last Riff]
                              E7       A
           E|----5-----0-4----4--2--4--5-|
           B|--2---2-3--------3--------5-|
           G|--2--------------4--------6-|
           D|--------------------------7-|
           A|----------------------------|
           E|----------------------------|



CHORD FORMATIONS:
A   x 0 2 2 2 0
F#m 2 4 4 2 2 2  (Bar across 2nd fret)
Bm  x x 4 4 3 2
Dm  x x 0 2 3 1
G   3 2 0 0 3 3

=================================


e| -|-------5-------------------4---------5-------------------4-|
B| -|--2---------2----3----5---------2---------2----3----5------|
G| -|-----------------------------------------------------------|
D| -|-----------------------------------------------------------|
A| -|-----------------------------------------------------------|
E| -|-----------------------------------------------------------|

    Then the ending:

e| -|--------5------------------4--------4----2----4---5--------|
B| -|---2--------2----3----5------------------------------------|
G| -|-----------------------------------------------------------|
D| -|-----------------------------------------------------------|
A| -|-----------------------------------------------------------|
E| -|-----------------------------------------------------------|

============================

                               In My Life

                             By The Beatles

                       From The Rubber Sole Album

                    Tab By Roi Ben Menachem, Israel

Start

e|---5-------4-0-0-0------\-|
B|-2---2-3-5---0-0-0--------|
G|-------------1-1-1--------|
D|-------------2-2-2--------|
A|-0---0-------2-2-2--------|
E|-----------0-0-0-0--------|

End

e|---5-------4-4-2-4-5---\-|
B|-2---2-3-5---------------|
G|-------------------------|
D|-------------------------|
A|-0---0-------------0-----|
E|-----------0-0-0-0-------|

=====================================

     (A)          (E)
e|-----5-------------|--------|
B|----------------9--|-----/--|
G|--6-----6h7--9-----|--.-/---|
D|-------------------|---/-.--|
A|-------------------|--/-----|
E|-------------------|--------|


[Verse]

             (A)     (E7) (F#m)  (A7)      (D) (Dm)    (A)
    There are places I'll remember, all my life, though some have changed
                 (E7)    (F#m) (A7)        (D)(Dm)  (A)
    Some forever, not for better, some have gone and some remain.
          (F#m)            (Bm)          (G)                   (A)
 All these places had their moments, with lovers and friends, I still can recal.
         (F#m)             (B)         (D)          (A)
 Some are dead and some are living.  In my life I've loved them all.


[Opening Riff]

e|---5-------4-0-0-0------\-|
B|-2---2-3-5---0-0-0--------|
G|-------------1-1-1--------|
D|-------------2-2-2--------|
A|-0---0-------2-2-2--------|
E|-----------0-0-0-0--------|


[Electric Piano Solo]

e|------------9-----12p10--12----------------------9p7--9---10--12--15--|
B|-----10h12----10-------------12-----12---7h9/10-----------------------|
G|---------------------------------9------------------------------------|
D|----------------------------------------------------------------------|
A|--0-------------------------------------------------------------------|
E|----------------------------------------------------------------------|

e|-14-12-14----14----14----13p12--13-------12-10-12-9-12----12----12p10--12-9-----|
B|----------15----14----12-----------15-12---------------12----10-------------12--|
G|--------------------------------------------------------------------------------|
D|--------------------------------------------------------------------------------|
A|--------------------------------------------------------------------------------|
E|--------------------------------------------------------------------------------|


(FIRST LINE AGAIN)


e|--12--9h10h12--9-------------------------------|
B|-----------------10---9---10p9p7---------------|
G|--------------------9-------------9p7p6--------|
D|------------------------------------------9p7--|
A|-----------------------------------------------|
E|-----------------------------------------------|

        The rest of the song is the same except
        for this little bit at the end:


   (E7)      (A)
e|------------5--|
B|--9--7-9----5--|
G|--7---------6--|
D|--9---------7--|
A|--7------------|
E|---------------|


CHORDS USED:

A- 566755
E7- 020100
F#m- 244222
A7- 575655
D- X57775
Dm- X57765
Bm- X24432
G- 355433
B- X24442



************************************

| h  Hammer-on
| p  Pull-off
| /  Slide up
| \  Slide down

************************************
Suggest correction
comments
print report bad tab
8 comments total. Showing first comments.
0 reply
onesentiment 10 Oct 18, 2005 11:08 AM

CHORDS USED:

A- 566755

change to :

A- 577655

+1 reply
KimnElory 21 Apr 30, 2006 12:35 AM

i think if that's better
Some for ever not for better
A F#m
Some for ever not for better
A E F#m

+1 reply
sschipmunk 21 May 22, 2006 05:33 PM

not accurate

guest
Wanna post a correction for this tab? Suggest correction