Oops, an error
Loading. Please wait.
We have an official In My Life tab made by UG professional guitarists. Check out the tab »
×
33,160 views 27 this week
2 commentsread comments
1 2 3 4 5
x 17
add to favorites
×
Save as Personal and add changes to this tab that will be seen only by you. Learn more ›
×
You can save this tab as Personal to edit and correct it or add notes. All changes will be seen only by you. Learn more »
launch autoscroll
font size
0
reset
guitar tuner
backing track
0:00
0:00
edit
Autoscroll
slow
fast
+/-
esc
set tempo
stop
Author
In My Life
The Beatles
Written by John Lennon and Paul McCartney; released on "Rubber Soul"

This is my favourite; and one of the most beautiful songs by The Beatles.
Even one of the greatest love songs ever written; I think :-)

[Intro]
G|------- ------- ------- -------|------- ------- ------- -------|
D|7-------7-------7--------------|--------------------6---7---7--|
A|--------------------4---5---7--|--------7----------------------|
E|-------------------------------|-------------------------------|
 

G|------- ------- ------- -------|------- ------- ------- -------|
D|--------7-------7--------------|-------------------------------|
A|--------------------4---5---7--|--------7---7---7--------------|
E|-------------------------------|-------------------------------|
                                                         There are

[Verse]
G|------- ------- ------- -------|------- ------- ------- -------|
D|7------------------------------|4-----------5-----------7------|
A|----------------7--------------|-------------------------------|
E|-------------------------------|-------------------------------|
  pla  -  ces     I       re  -   member,                 all my


G|------- ------- ------- -------|------- ------- ------- -------|
D|-------------------------------|7-----------7---7--------------|
A|5-----------5---5--------------|-------------------------------|
E|-------------------------------|-------------------------------|
  life,                    though some have   changed    Some for-
  Ooooooooooooooooooooooooooooooooooooooooooooooo

G|------- ------- ------- -------|------- ------- ------- -------|
D|7-----------7------------------|4-----------4---5-------7------|
A|----------------7--------------|-------------------------------|
E|-------------------------------|-------------------------------|
  e   -   ver,    not     for     better,                some have


G|------- ------- ------- -------|------- ------- ------- -------|
D|-------------------------------|7-----------7---7-------7-\-2--|
A|5-----------5---5-----------5--|-------------------------------|
E|-------------------------------|-------------------------------|
  gone,                       and some    re- main        All these
  Ooooooooooooooooooooooooooooooooooooooooooooooo
[Bridge]
G|------- ------- ------- -------|------- ------- ------- -------|
D|4------------------------------|-------------------------------|
A|-------------------------------|5-----------5---5--------------|
E|-------------------------------|-------------------------------|
  pla  -  ces     had     their   mo- ments                   with


G|------- ------- ------- -------|------- ------- ------- -------|
D|5---5---5---5---5---5---5---5--|7---7---7---7---7---7---7------|
A|-------------------------------|----------------------------7--|
E|-------------------------------|-------------------------------|
  lovers  and friends         I   still   recall         Some are
                                      can

G|------- ------- ------- -------|------- ------- ------- -------|
D|-------------------------------|-------------------------------|
A|9------------------------------|-------------------------------|
E|-------------------------------|7-----------7---7--------------|
  dead    and     some    are     li- ving,                   in


G|------- ------- ------- -------|------- ------- ------- -------|
D|-------------------------------|7-----------7---7--------------|
A|5---5---5---5---5---5---5---5--|-------------------------------|
E|-------------------------------|-------------------------------|
  my              life       I've loved  them all


G|------- ------- ------- -------|------- ------- ------- -------|
D|7---------------7--------------|--------------------6-------7--|
A|--------------------4---5---7--|--------7-------7--------------|
E|-------------------------------|-------------------------------|
                                                          But of

[Verse]
G|------- ------- ------- -------|------- ------- ------- -------|
D|7-------7----------------------|4-----------5-----------5------|
A|----------------7--------------|-------------------------------|
E|-------------------------------|-------------------------------|
  all     these   friends and     lo- vers,              there is


G|------- ------- ------- -------|------- ------- ------- -------|
D|-------------------------------|7-----------7---7--------------|
A|5-----------5---5-----------5--|------------------------7------|
E|-------------------------------|-------------------------------|
  no              one         com-pares  with you         And these
  Ooooooooooooooooooooooooooooooooooooooooooooooo

G|------- ------- ------- -------|------- ------- ------- -------|
D|7-----------7------------------|4-----------5-----------7------|
A|----------------7--------------|-------------------------------|
E|-------------------------------|-------------------------------|
  memo -  ries    lose    their   meaning,               when I


G|------- ------- ------- -------|------- ------- ------- -------|
D|-------------------------------|7-----------7---7--------------|
A|5-----------5---5--------------|------------------------7------|
E|-------------------------------|-------------------------------|
  think       of  love        as  something   new        Though I
  Ooooooooooooooooooooooooooooooooooooooooooooooo
[Bridge]
G|------- ------- ------- -------|------- ------- ------- -------|
D|4-------4----------------------|-------------------------------|
A|-------------------------------|5-----------5---5--------------|
E|-------------------------------|-------------------------------|
  know    I'll    ne- ver lose af-fection                     for


G|------- ------- ------- -------|------- ------- ------- -------|
D|5-----------5---5---5---5---5--|7-----------7---7--------------|
A|-------------------------------|------------------------7---7--|
E|-------------------------------|-------------------------------|
  people  and things         that went be  -  fore,           I


G|------- ------- ------- -------|------- ------- ------- -------|
D|-------------------------------|-------------------------------|
A|9------------------------------|-------------------------------|
E|-------------------------------|7-----------7---7--------------|
  know I'll often stop and think about them,                  in


G|------- ------- ------- -------|------- ------- ------- -------|
D|-------------------------------|7-----------7---7--------------|
A|5-----------5---5-----------5--|-------------------------------|
E|-------------------------------|-------------------------------|
  my              life       I'll love you    more

Verse (solo):
G|------- ------- ------- -------|------- ------- ------- -------|
D|7-----------7------------------|4-----------5-----------5------|
A|----------------7--------------|-------------------------------|
E|-------------------------------|-------------------------------|
 


G|------- ------- ------- -------|------- ------- ------- -------|
D|-------------------------------|7-----------7---------------5--|
A|5-----------5---5--------------|------------------------7------|
E|-------------------------------|-------------------------------|
 


G|------- ------- ------- -------|------- ------- ------- -------|
D|7-----------7------------------|4-----------5------------------|
A|----------------7-----------7--|-------------------------------|
E|-------------------------------|-------------------------------|
 


G|------- ------- ------- -------|------- ------- ------- -------|
D|----------------------------4--|7-----------7------------------|
A|5-----------5---5--------------|------------------------7------|
E|-------------------------------|-------------------------------|
                                                         Though I

[Bridge]
G|------- ------- ------- -------|------- ------- ------- -------|
D|4------------------------------|----------------------------4--|
A|-------------------------------|5-----------5---5--------------|
E|-------------------------------|-------------------------------|
  know    I'll    ne- ver lose af-fection                     for


G|------- ------- ------- -------|------- ------- ------- -------|
D|5-----------5---5-----------5--|7-----------7---7-----------5--|
A|-------------------------------|------------------------7------|
E|-------------------------------|-------------------------------|
  people  and things         that went be  -  fore,           I


G|------- ------- ------- -------|------- ------- ------- -------|
D|4------------------------------|-------------------------------|
A|-------------------------------|-------------------------------|
E|-------------------------------|7-----------7---7--------------|
  know I'll often stop and think about them,                  in


G|------- ------- ------- -------|------- ------- ------- -------|
D|-------------------------------|7-----------7---7--------------|
A|5-----------5---5--------------|----------------------------7--|
E|-------------------------------|-------------------------------|
  my              life       I'll love you    more

[Outro]
G|------- ------- ------- -------|------- ------- ------- -------|
D|7-------7-------7--------------|-------------------------------|
A|----------------------------7--|------------7---7--------------|
E|--------------------7---9------|-------------------------------|
                                                              In


G|-----------------------------------------------------------------------|
D|-----------------------------------------------------------------------|
A|5----------------------------------------------------------------------|
E|-----------------------------------------------------------------------|
  my              life                    I'll    love        YOU


G|------- ------- ------- -------|------- ------- ------- -------|
D|7---------------7--------------|-------------------------------|
A|--------------------4---5---7--|--------7---7------------------|
E|-------------------------------|-------------------------------|
  more!


G|------- ------- ------- -------|------- ------- ------- -------|
D|7------------------------------|-------------------------------|
A|-------------------------------|-------------------------------|
E|-------------------------------|-------------------------------|

Please e-mail me for any corrections.



************************************

| \  Slide down

************************************

            
            
Suggest correction
Creating personal tab
Creating personal tab
You can edit any tab online and save it as your Personal.

You can edit, replace or remove any tab part or add personal notes – all changes will be seen only by you.

Personal tabs can be accessed anytime from any device, even offline.
Learn more »
comments
print report bad tab
2 comments total.
+1 reply
SoftParade1967 512 Nov 23, 2008 01:07 PM

I love it!

+1 reply
68lpjr 10 May 10, 2010 07:15 AM

very good! 5*s

guest
You may want to rate the tab now too:
select rating
Wanna post a correction for this tab? Suggest correction