Oops, an error
Loading. Please wait.

In Spite Of All The Danger chords

version 5
version 5

Whole song

  • Paul McCarney Live. Great for acoustic guitar.
  • It comes withe the correctly chords, the intro and the solo too.
124 views 21 this week
1 commentread comment
1 2 3 4 5
1 last vote to show rating
add to favorites
×
Save as Personal and add changes to this tab that will be seen only by you. Learn more ›
×
You can save this tab as Personal to edit and correct it or add notes. All changes will be seen only by you. Learn more »
launch autoscroll
font size
0
reset
transpose
0
reset
simplify chords
display chords
guitar tuner
edit
Autoscroll
slow
fast
+/-
esc
set tempo
stop
About this tab version
It comes withe the correctly chords, the intro and the solo too. Was this info helpful? Yes No
Strumming
There is no strumming pattern for this song yet. and get +5 IQ
Note: Guitar 1 plays the chords, guitar 2 plays  the intro an the solo, after it ends play the chords too

[Chords]
B7     E    E7     A
|-2-| |-0-| |-0-| |-0-|
|-0-| |-0-| |-0-| |-2-|
|-2-| |-1-| |-1-| |-2-|
|-1-| |-2-| |-0-| |-2-|
|-2-| |-2-| |-2-| |-0-|
|---| |-0-| |-0-| |---|

[Intro]
e|--0-4-7-12-12-12-10-7-12-12-10---------|
B|-------------------------------12-10---|
G|------------------------------------11-|
D|---------------------------------------|
A|---------------------------------------|
E|---------------------------------------|

[Verse]
B7                       E
     In spite of all the danger
                                      E7
In spite of all that may be (ah ah ah aaah)
                     A                         B7
I'll do anything for you, anything you want me to
                     E    A  E
If you'll be true to me
                    E
In spite of all the heartaches
                               E7
That you made for me (ah ah ah aaah)
                     A                         B7
I'll do anything for you, anything you want me to
                     E    A   E  E7
If you'll be true to me

[Bridge]
     A
I'll look after you
          E
Like I've never done before
      A
I'll keep all those others
     B7  
From knockin' at your door

[Verse]
                    E
In spite of all the danger
                                      E7
In spite of all that may be (ah ah ah aaah)
                     A                         B7
I'll do anything for you, anything you want me to
                     E    A  E
If you'll be true to me

[Instrumental solo]
| E | % | % | % |
| A | % | E | % |
| B7 | A | E | B7 | 

[Solo]
           E
e|---------------------------------|------------------------------0--|
B|---------------------------------|---------------------------------|
G|---------------------------------|---------------------------------|
D|---------------------------------|---------------------------------|
A|---------------------------------|---------------------------------|
E|---------------------------------|---------------------------------|

           E
e|-4----7--12---12-10--7---12---12-|-0-4--7--12---12-10---7--12---12-|
B|---------------------------------|---------------------------------|
G|---------------------------------|---------------------------------|
D|---------------------------------|---------------------------------|
A|---------------------------------|---------------------------------|
E|---------------------------------|---------------------------------|

           E
e|-0-4--7--12---12-10---7--12---12-|-10---7--12-10---12-10---12-10---|
B|---------------------------------|---------------12------12------12|
G|---------------------------------|---------------------------------|
D|---------------------------------|---------------------------------|
A|---------------------------------|---------------------------------|
E|---------------------------------|---------------------------------|

           A
e|-12-10-12/15---15-14---12-15---15-|-14---12-15---15-14---12-15---15-|
B|----------------------------------|---------------------------------|
G|----------------------------------|---------------------------------|
D|----------------------------------|---------------------------------|
A|----------------------------------|---------------------------------|
E|----------------------------------|---------------------------------|

           E
e|-14-12-12-12---12-10---7--12---12-|-10---7--12-10---12-10---12-10---|
B|----------------------------------|---------------12------12------12|
G|----------------------------------|---------------------------------|
D|----------------------------------|---------------------------------|
A|----------------------------------|---------------------------------|
E|----------------------------------|---------------------------------|

           B7                                A
e|-12-10----2----2--2----2--2----2--|-2--2--2-0----0--0----0--0----0--|
B|-------12-------------------------|---------------------------------|
G|----------2----2--2----2--2----2--|-2--2--2-2----2--2----2--2----2--|
D|----------------------------------|---------------------------------|
A|----------------------------------|---------------------------------|
E|----------------------------------|---------------------------------|

           E                                 B7
e|-0-------12-10---12-10---12-10---12-10----------|
B|---------------12------12------12-----12-10-----|
G|-2----------------------------------------2--11-|
D|------------------------------------------------|
A|------------------------------------------------|
E|------------------------------------------------|

[Verse]
                    E
In spite of all the heartaches
                               E7
That you made for me (ah ah ah aaah)
                     A                         B7
I'll do anything for you, anything you want me to
                     E    A   E
If you'll be true to me
                     A                         B7
I'll do anything for you, anything you want me to
                     E    A   E 
If you'll be true to me

            
            
Suggest correction
Creating personal tab
Creating personal tab
You can edit any tab online and save it as your Personal.

You can edit, replace or remove any tab part or add personal notes – all changes will be seen only by you.

Personal tabs can be accessed anytime from any device, even offline.
Learn more »
Give kudos to tab author, rate the tab!
1 2 3 4 5
comments
print report bad tab
1 comment total.
0 reply
i_am_the_just1 10 Jul 28, 2017 05:03 PM

Great tab bro

guest
You may want to rate the tab now too:
select rating
Wanna post a correction for this tab? Suggest correction