Oops, an error
Loading. Please wait.

Lady Madonna Bass Tab

version 2
version 2
41,276 views 81 this week
5 commentsread comments
1 2 3 4 5
excellent!
x 26
add to favorites
launch autoscroll
font size
0
reset
guitar tuner
Tab Pro tools
  • play this tab
  • loop segment
  • change instrument
  • show fretboard
  • metronome
×
Best way to learn
"Lady Madonna"
Autoscroll
slow
fast
+/-
esc
set tempo
stop
The Base and the guitar plays the same mainriff Twise


Main riff  G---------------2------
           D---------0-0-34-------           
           A-0-0-3-4--------------
           E----------------------


Then goes the bass line like this:

riff nr2   G----------------------------------
           D-----------------3-3-5-5-7--------
           A-0-0-4-4-5-5-7-7-----------0------
           E----------------------------------

Play The main riff 2 times then riff nr2 then The main riff 2 times then riff nr2 again. 

Chorus: 
G---------------------------------------------
D-----------------5-5-3-3-2-2-0-0-------------
A-5-5-3-3-2-2-0-0-----------------3-3-2-2-0-0-
E---------------------------------------------

G------------------------------------------------------
D-------------------------------------5-5-3-3-2-2-0-0--
A-----0-0-2-2-3-3-4-4-5-5-3-3-2-2-0-0------------------
E-3-3--------------------------------------------------


G--------------------------------------
D--------------------------------------
A-3-5-3-7------------------------------
E---------0----------------------------


Then Back and play next verse (The main riff 2 times then riff nr2 then The main riff 
2 times then riff nr2 again)


Not tabbed by Klas Johansson GOOD LUCK!!!!!
Any qestions ask me at fasen_tusan@hotmail.com
comments
print report bad tab
5 comments total. Showing first comments.
-1 reply
bradh2414 wrote on February 23 2009, 05:23 pm

i think the chorus part goes
G:--------------------------------------------------------------
D:------------55-33-22-00--------------------------55-33-22-00--
A:55-33-22-00-------------33-22-00-----55-33-22-00--------------
E:---------------------------------33---------------------------
i think the run up part sounds better this way

0 reply
suggitt wrote on May 5 2009, 12:23 pm

i think it sounds better if you play the 5th fret on the string above in stead of an open string

0 reply
Beatles_Lover13 wrote on May 22 2012, 06:13 pm

i think its fine the way it is

I want to post or [tab]
guest
You may want to rate the tab now too:
select rating
Please do not post tabs as comments. Select "correction" instead!