Oops, an error
Loading. Please wait.

Lady Madonna Tab

version 5
version 5

Whole song

Interactive

3,162 views 9 this week
no commentswrite comment
1 2 3 4 5
excellent!
x 2
add to favorites
launch autoscroll
font size
0
reset
how to read this tab
guitar tuner
Tab Pro tools
  • play this tab
  • loop segment
  • change instrument
  • show fretboard
  • metronome
Autoscroll
slow
fast
+/-
esc
set tempo
stop
Contributor
abbed By : Stoneman
Song: Lady Madonna




I like the Percusion and the instrumental build up into intro,
(which must have been other unreleased outtakes until released on "Love"). 
and i always did like McCartneys Voice in "Lady Madonna".
it kind of reminds me of Elvis. 
so i decided to try and decipher everything on guitar.
enjoy!




*INTRO*

Horn Bass Figure:
G|------------|-----------|----------|----------|
D|------------|-----------|----------|--------2-|
A|-5-3-2-0----|-----------|--3-2-0---|--0-2-3---|
E|---------3~-|-----------|--------3-|----------|

G|------------|-----------|----------|----------|
D|------------|-----------|----------|--------2-|
A|-5-3-2-0----|-----------|--3-2-0---|--0-2-3---|
E|---------3~-|-----------|--------3-|----------|

G|------------|-----------|---------------------|
D|------------|-----------|---------------------|
A|-5-3-2-0----|-----------|--3~---5~------------|
E|---------3~-|-----------|-----------2~---2~---|



Horn:
E|----------------------------|------------------------------------|
B|----------------------------|------------------------------------|
G|-14-14-14-14----12-14-14-14-|-12-12-12-12----12---17-16-12-14----|
D|-------------14-------------|-------------14------------------14-|
A|----------------------------|------------------------------------|
E|----------------------------|------------------------------------|

E|----------------------------|------------------------------------|
B|----------------------------|------------------------------------|
G|-14-14-14-14----12-14-14-14-|-12-12-12-12----12---17-16-12-14----|
D|-------------14-------------|-------------14------------------14-|
A|----------------------------|------------------------------------|
E|----------------------------|------------------------------------|


E|----------------------------|
B|----------------------------|
G|-14-14-14-14----12-14-14-14-|
D|-------------14-------------|
A|----------------------------|
E|----------------------------|


Trumphet:
E|--------------------------------------------------------|
B|-----------------------------------------------------11-|
G|-------10-12-12b13p10-----12b13p10-----12-12b-----10----|
D|-12-14----------------12-----------12----------12-------|
A|--------------------------------------------------------|
E|--------------------------------------------------------|


fill:
E|---------------|
B|---------------|
G|---------------|
D|---------------|
A|--7-5-3-5-3-0--|
E|---------------|



*VERSE*

MAIN PIANO RIFF:

(play this section with accompaniment.
if u you're skilled enough,interweave them together.)

Piano Bass Lick:
G|---------------7---7-|---------------7---7-|
D|----7----------------|----7----------------|
A|-------3-3---5---5---|-------3-3---5---5---| 
E|-5-------------------|-5-------------------|


G|---------------7----9----10----12----14-14-|
D|----7--------------------------------------|
A|-------3-3---5----7----8----10----12-------|
E|-5-----------------------------------------|




Right Hand Piano Melody Lick: 
E|-------------|---------------|------------------------|
B|-------------|---------------|------------------------|
G|--5-6--5-4---|-5-6--5-4------|--5-6-5-4---------4-5-6-|
D|-----------7-|----------7--7-|----------7--7--7-------|
A|-------------|---------------|------------------------| 
E|-------------|---------------|------------------------|




 (Bass and Guitar)
G|-----------------2-|----------------2-|----------------|-----------|
D|---------0-0-3h4---|--------0-0-3h4---|--------0-0-2-2-|-3-3-5-5-7-|
A|-0-0-3-4-----------|-0-0-3-4----------|--0-3-4---------|-----------|
E|-------------------|------------------|----------------|-----------|



*CHORUS*


just Play The Intro, or u can play the bass line: 
G|----------------|----------------|----------------|----------------|
D|----------------|5-5-3-3-2-2-0-0-|----------------|------------2-2-|
A|5-5-3-3-2-2-0-0-|----------------|3-3-2-2-0-0-----|0-0-2-2-3-3-----|
E|----------------|----------------|------------3-3-|----------------|


G|----------------|----------------|----------------|
D|----------------|5-5-3-3-2-2-0-0-|---------5--5---|
A|5-5-3-3-2-2-0-0-|----------------|-3---5----------|
E|----------------|----------------|----------------|

Ending:
G|-----------------|-----------------|
D|-----------------|-----------------|
A|-0-0---0-5-5---5-|-6---5-3---------|
E|-----------------|-----------------|



*BRIDGE*


HEY BULLDOG RIFF:
E|-----------------------|---------------------|
B|-----------------------|---------------------|
G|-----------------------|---------------------|
D|-----------------------|---------------------|
A|--0-0-3--0-5--0--6b-7--|--0-0-3--0-7-0-6b-5--|
E|-----------------------|---------------------|



guitar solo: (The 13* means pinch harmonic... only a little)
E|--------------------------------|
B|-----13-13-13-------13-13---13*-|
G|--14----------14-14-------------|
D|--------------------------------|
A|--------------------------------|
E|--------------------------------|



E|-------------12---------12------------------------|---17~~------17~~--|
B|--15b17----------15b17---------15b17----13b15-----|-------------------|
G|----------------------------------------------14~-|-------------------|
D|--------------------------------------------------|-------------------|
A|--------------------------------------------------|-------------------|
E|--------------------------------------------------|-------------------|


E|-------------12---------12-------------------------|
B|--15b17----------15b17---------15b17----13b15------|
G|----------------------------------------------14~--|
D|---------------------------------------------------|
A|---------------------------------------------------|
E|---------------------------------------------------|


Ending:
G|-----------------|------------------|
D|-----------------|------------------|
A|-0-0---0-5-5---5-|-6---5-3~---------|
E|-----------------|------------------|




That pretty much sums it all up. im sure you can figure out the song order.
feel free to leave corrections/comments.
peace V

comments
We did not receive enough feedback on this tab! Please rate:
print report bad tab
1 2 3 4 5
I want to post or [tab]
guest
You may want to rate the tab now too:
select rating
Please do not post tabs as comments. Select "correction" instead!