Oops, an error
Loading. Please wait.

Lady Madonna Bass Tab

version 6
version 6
865 views 3 this week
no commentswrite comment
1 2 3 4 5
please rate
add to favorites
launch autoscroll
font size
0
reset
guitar tuner
Tab Pro tools
  • play this tab
  • loop segment
  • change instrument
  • show fretboard
  • metronome
×
Best way to learn
"Lady Madonna"
Autoscroll
slow
fast
+/-
esc
set tempo
stop
Contributor
This is the baseline from the Beatles' Lady Madonna.  I'm not sure there is an
actual bass in the song but this is an accuatre combination of the piano and
guitar parts.  Sounds great if you are trying to recreate the song without a
piano in the band.  There is only two parts that alternate.


Intro and Verse

-----------------7----------|-----------------7----------|
-----7-------------------7--|-----7-------------------7--|
--------3--4--5-----8h-9----|--------3--4--5-----8h-9----|
--5-------------------------|--5-------------------------|
     
  Lady Madonna...


-----------------7-----9--|-----10------12------14--------|
-----7--------------------|----------------------------7--|
--------3--4--5-----7-----|--8------10------12------0-----|
--5-----------------------|-------------------------------|



Chorus

-----7-----5-----4--------|-----------10-----9-----7--|-----5-----4--------------|
-----------------------7--|-----5---------------------|-----------------7-----5--|
--5-----3-----2-----------|--------8------7-----5-----|--3-----2-----------------|
--------------------5-----|--3------------------------|--------------5-----3-----|

  Friday night...


-----------4-----5-----9--|-----7-----5-----4--------|-----------10-----9-----7--|
-----7--------------------|-----------------------7--|-----5---------------------|
--------2-----3-----7-----|--5-----3-----2-----------|--------8------7-----5-----|
--5-----------------------|--------------------5-----|--3------------------------|


--------------------|---------------------|
--------------------|---------------------|
--3--------2--------|--/7-----------------|
--------------------|------------0--------|

 See      how they     run


The ending walks up and down A-B-C twice.  You'll get it if you listen.
comments
We did not receive enough feedback on this tab! Please rate:
print report bad tab
1 2 3 4 5
I want to post or [tab]
guest
You may want to rate the tab now too:
select rating
Please do not post tabs as comments. Select "correction" instead!