Oops, an error
Loading. Please wait.

Lady Madonna Bass Tab

version 7
version 7
327 views 1 this week
no commentswrite comment
1 2 3 4 5
please rate
add to favorites
launch autoscroll
font size
0
reset
guitar tuner
Tab Pro tools
  • play this tab
  • loop segment
  • change instrument
  • show fretboard
  • metronome
×
Best way to learn
"Lady Madonna"
Autoscroll
slow
fast
+/-
esc
set tempo
stop
Contributor
Difficulty
I looked at the bass tabs for this song and they didn't look right to me
email me @jfmradiosince1997@live.co.uk if you see any mistakes :)

Intro

G|--------------|--------------|--------------|--------------|
D|--------------|--------------|--------------|--------------|
A|--------0-0--0|-1--0---------|--------0-0--0|-1--0---------|
E|-3-3--3-------|------3-------|-3-3--3-------|------3-------|

Main Part

G|-----------------0|----------------0|   |------------------------------------|
D|-------------1h2--|------------1h2--| x2|------------0-0-1-1-3-3/5-5-5-------|
A|-----1-2-3-3------|----1-2-3-3------|   |----1-2-3-3-------------------------|
E|-3-3--------------|-33--------------|   |-33---------------------------------|

G|----------------|----------------|----------------|----------------|
D|----------------|-3-3-1-1-0-0----|----------------|-------------0-0|
A|-3-3-1-1-0-0----|-------------3-3|-1-1-0-0--------|-----0-0-1-1----|
E|-------------3-3|----------------|---------3-3-1-1|-3-3------------|

G|----------------|----------------|----------------|----------------|
D|----------------|-3-3-1-1-0-0----|----------------|-0-------0------|
A|-3-3-1-1-0-0----|-------------3-3|-1-------0------|----------------|
E|-------------3-3|----------------|----------------|----------------|


Repeat the Main Part then play the Intro again for the ending :)
comments
We did not receive enough feedback on this tab! Please rate:
print report bad tab
1 2 3 4 5
I want to post or [tab]
guest
You may want to rate the tab now too:
select rating
Please do not post tabs as comments. Select "correction" instead!