Oops, an error
Loading. Please wait.

Lend Me Your Comb Bass Tab

1,092 views 1 this week
no commentswrite comment
1 2 3 4 5
excellent!
x 2
add to favorites
launch autoscroll
font size
0
reset
guitar tuner
Tab Pro tools
  • play this tab
  • loop segment
  • change instrument
  • show fretboard
  • metronome
Autoscroll
slow
fast
+/-
esc
set tempo
stop
Contributor
Lend Me Your Comb
The Beatles
Written by Ben Weisman, Fred Wise and Kay Twomey

A song from the Anthology.

Intro:
G|------- ------- ------- -------|------- ------- ------- -------|
D|-------------------------------|5-----------7-----------9------|
A|7-----------7-----------7------|-------------------------------|
E|-------------------------------|-------------------------------|



G|------- ------- ------- -------|------- ------- ------- -------|
D|-------------------------------|5-----------7-----------9------|
A|7-----------7-----------7------|-------------------------------|
E|-------------------------------|-------------------------------|


Verse:
G|------- ------- ------- -------|------- ------- ------- -------|
D|------------6-----------9------|-------------------------------|
A|7------------------------------|------------4-----------7------|
E|-------------------------------|5------------------------------|
          Lend    me  your    comb,                       it's


G|------- ------- ------- -------|------- ------- ------- -------|
D|------------6-----------9------|-------------------------------|
A|7------------------------------|------------4-----------7------|
E|-------------------------------|5------------------------------|
  time                to  go      home,   I've got    to  get


G|------- ------- ------- -------|------- ------- ------- -------|
D|-------------------------------|-------------------------------|
A|------------6-----------9------|-------------------------------|
E|7------------------------------|7------------------------------|
  past,                                   my  hair    is  a


G|------- ------- ------- -------|------- ------- ------- -------|
D|-------------------------------|5-----------7-----------9------|
A|7-----------7-----------7------|-------------------------------|
E|-------------------------------|-------------------------------|
  mess                                                    Your

Verse:
G|------- ------- ------- -------|------- ------- ------- -------|
D|------------6-----------9------|-------------------------------|
A|7------------------------------|------------4-----------7------|
E|-------------------------------|5------------------------------|
  mam      -      my  will    scold,                      your


G|------- ------- ------- -------|------- ------- ------- -------|
D|------------6-----------9------|-------------------------------|
A|7------------------------------|------------4-----------7------|
E|-------------------------------|5------------------------------|
  pap        -        py  will    shout   Unless      we  come


G|------- ------- ------- -------|------- ------- ------- -------|
D|-------------------------------|-------------------------------|
A|------------6-----------9------|-------------------------------|
E|7------------------------------|7------------------------------|
  in                                      the way     we  went


G|------- ------- ------- -------|------- ------- ------- -------|
D|------------6-----------9------|--------4-------5-------6------|
A|7------------------------------|7------------------------------|
E|-------------------------------|-------------------------------|
  out

Bridge:
G|------ ------ ------ ------|------ ------ ------ ------|
D|7--------------------------|-------6------9------6-----|
A|--------------7------9-----|7--------------------------|
E|-------9-------------------|---------------------------|
      Kissing you   was           fun,   ho -  ney, but


G|------ ------ ------ ------|------ ------ ------ ------|
D|---------------------------|-------6------9------6-----|
A|-------6------9------6-----|7--------------------------|
E|7--------------------------|---------------------------|
             thanks for the date


G|------ ------ ------ ------|------ ------ ------ ------|
D|7--------------------------|-------6------9------6-----|
A|--------------7------9-----|7--------------------------|
E|-------9-------------------|---------------------------|
      Now I must come  to         run,   ho -  ney, but


G|------ ------ ------ ------|------ ------ ------ ------|
D|---------------------------|9--------------------------|
A|9--------------------------|---------------------------|
E|---------------------------|---------------------------|
      you know, ba- by, it's      getting late

Verse:
G|------- ------- ------- -------|------- ------- ------- -------|
D|------------6-----------9------|-------------------------------|
A|7------------------------------|------------4-----------7------|
E|-------------------------------|5------------------------------|
          Just    wait    till I


G|------- ------- ------- -------|------- ------- ------- -------|
D|------------6-----------9------|-------------------------------|
A|7------------------------------|------------4-----------7------|
E|-------------------------------|5------------------------------|
          say,            my      darling:    Lend    me  your


G|------- ------- ------- -------|------- ------- ------- -------|
D|-------------------------------|-------------------------------|
A|------------6-----------9------|-------------------------------|
E|7------------------------------|7------------------------------|
  comb,                                   we  got     to  go


G|------- ------- ------- -------|------- ------- ------- -------|
D|-------------------------------|5-----------7-----------9------|
A|7-----------7-----------7------|-------------------------------|
E|-------------------------------|-------------------------------|
  home

Break (solo):
G|------- ------- ------- -------|------- ------- ------- -------|
D|------------6-----------9------|-------------------------------|
A|7------------------------------|------------4-----------7------|
E|-------------------------------|5------------------------------|



G|------- ------- ------- -------|------- ------- ------- -------|
D|------------6-----------9------|-------------------------------|
A|7------------------------------|------------4-----------7------|
E|-------------------------------|5------------------------------|



G|------- ------- ------- -------|------- ------- ------- -------|
D|------------6-----------9------|-------------------------------|
A|7------------------------------|------------4-----------7------|
E|-------------------------------|5------------------------------|



G|------- ------- ------- -------|------- ------- ------- -------|
D|-------------------------------|-------------------------------|
A|7------------------------------|-------------------------------|
E|-------------------------------|--------------------0-/-3------|



G|------- ------- ------- -------|------- ------- ------- -------|
D|------------6-----------9------|-------------------------------|
A|7------------------------------|------------4-----------7------|
E|-------------------------------|5------------------------------|



G|------- ------- ------- -------|------- ------- ------- -------|
D|------------6-----------9------|-------------------------------|
A|7------------------------------|------------4-----------7------|
E|-------------------------------|5------------------------------|



G|------- ------- ------- -------|------- ------- ------- -------|
D|------------6-----------9------|-------------------------------|
A|7------------------------------|------------4-----------7------|
E|-------------------------------|5------------------------------|



G|------- ------- ------- -------|------- ------- ------- -------|
D|-------------------------------|----------------4-------5------|
A|7------------------------------|----7--------------------------|
E|-------------------------------|-------------------------------|


Bridge:
G|------ ------ ------ ------|------ ------ ------ ------|
D|7--------------------------|-------6------9------6-----|
A|--------------7------9-----|7--------------------------|
E|-------9-------------------|---------------------------|
      Kissing you   was           fun,   ho -  ney, but


G|------ ------ ------ ------|------ ------ ------ ------|
D|9--------------------------|-------6------9------6-----|
A|-------6------9------6-----|7------------------------7-|
E|---------------------------|---------------------------|
             thanks for the date


G|------ ------ ------ ------|------ ------ ------ ------|
D|7--------------------------|-------6------9------6-----|
A|-------9------7------------|7--------------------------|
E|---------------------9-----|---------------------------|
      Now I must come  to         run,   ho -  ney, but


G|------ ------ ------ ------|------ ------ ------ ------|
D|---------------------------|9--------------------------|
A|9--------------------------|---------------------------|
E|---------------------------|---------------------------|
      you know, ba- by, it's      getting late

Verse:
G|------- ------- ------- -------|------- ------- ------- -------|
D|------------6-----------9------|-------------------------------|
A|7------------------------------|------------4-----------7------|
E|-------------------------------|5------------------------------|
          Just    wait    till I


G|------- ------- ------- -------|------- ------- ------- -------|
D|------------6-----------9------|-------------------------------|
A|7------------------------------|------------4-----------7------|
E|-------------------------------|5------------------------------|
          say,            my      darling:    Lend    me  your


G|------- ------- ------- -------|------- ------- ------- -------|
D|9------------------------------|9------------------------------|
A|------------6-----------9------|-------------------------------|
E|-------------------------------|-------------------------------|
  comb,                                   we  got     to  go


G|------- ------- ------- -------|------- ------- ------- -------|
D|-------------------------------|5-----------7-----------9------|
A|7-----------7-----------7------|-------------------------------|
E|-------------------------------|-------------------------------|
  home

Outro:
G|------- ------- ------- -------|------- ------- ------- -------|
D|-------------------------------|5-----------7-----------9------|
A|7-----------7-----------7------|-------------------------------|
E|-------------------------------|-------------------------------|
repeat and fade...
comments
We did not receive enough feedback on this tab! Please rate:
print report bad tab
1 2 3 4 5
I want to post or [tab]
guest
You may want to rate the tab now too:
select rating
Please do not post tabs as comments. Select "correction" instead!