Oops, an error
Loading. Please wait.
We have an official Let It Be tab made by UG professional guitarists. Check out the tab »
×
155,118 views 87 this week
4 commentsread comments
1 2 3 4 5
x 20
add to favorites
×
Save as Personal and add changes to this tab that will be seen only by you. Learn more ›
×
You can save this tab as Personal to edit and correct it or add notes. All changes will be seen only by you. Learn more »
launch autoscroll
font size
0
reset
how to read this tab
guitar tuner
backing track
0:00
0:00
edit
Autoscroll
slow
fast
+/-
esc
set tempo
stop
Author
Unregistered
it's the solo part of let it be. i'm pretty sure it is correct.

[Verses] C G Am F C G F Em Dm C
[Chorus] Am G F C C G F C

 (01:45)
e|--------------------|
B|-10-8-6-5-3-1-0-1-1-|
G|-10-9-7-5-3-2-0-2-0-|
D|--------------------|
A|--------------------|
E|--------------------|
play this twice

 (01:59)
e|------------------------------------------------------------0-3-5-3-0---------------------|
B|----------------------------------------------------------1------------3-1---3----1-------|
G|------------------------------0----2-0--------0-0-0-2-------------------------2-0---------|
D|---------2-0-0-0--------0-2----2-0-------2------------------------------------------2-0---|
A|-----3-3----3?----3------------3--------------------------------------------------------3-|
E|-3-5-------------3--5---------------------------------------------------------------------|

e|-----------------0---------------0-3-5-3-0-------------0-8-5-3-0-1-2-1-0-8-5-3-0-5-3-0---------|
B|-------------------3-1-3------------------3-1-------1----------------------------------3-1-3-1-|
G|----------2-0------------2-0-2-----------------0-2---------------------------------------------|
D|-----2-----------------------------------------------------------------------------------------|
A|---0---3---------------------------------------------------------------------------------------|
E|-3---------------------------------------------------------------------------------------------|
Suggest correction
Creating personal tab
Creating personal tab
You can edit any tab online and save it as your Personal.

You can edit, replace or remove any tab part or add personal notes – all changes will be seen only by you.

Personal tabs can be accessed anytime from any device, even offline.
Learn more »
comments
print report bad tab
4 comments total. Showing first comments.
+1 reply
Heat 10 Mar 07, 2004 07:00 PM

not good sry

0 reply
ZackEpiphone 10 Mar 22, 2006 01:40 PM

FUCK ! ITS NOT A 31 AND 20 .. SPACE THEM OUT. and oh yah .. it sucks your moms balls..... sorry to say ! peace !

+1 reply
19JR84 10 Feb 14, 2008 10:20 AM

yea hes right u deffinatley should put spaces in between

guest
Wanna post a correction for this tab? Suggest correction