Oops, an error
Loading. Please wait.
We have an official Let It Be tab made by UG professional guitarists. Check out the tab »
×
149,143 views 135 this week
10 commentsread comments
1 2 3 4 5
x 42
add to favorites
launch autoscroll
font size
0
reset
how to read this tab
guitar tuner
backing track
0:00
0:00
×
Best way to learn
"Let It Be"
Autoscroll
slow
fast
+/-
esc
set tempo
stop
Author
*********************************************
Update by Pelusteriano, 2016.06.20 - 14:33
 Added key
 Formatted to include measures
 Added harmony chords
 Formatted tab symbols to match UG standards
 Added descriptions of symbols under tab
*********************************************

Key: C major
Tuning: standard

                       C              G            Am           F
e|-------------------|---------------------------|-------------------|
B|-------------------|---------------------------|-------------------|
G|--------5---5------|-------------------------5-|-7b9----7b9r7-5----|
D|—-------5h7-5------|----------5-5---5-----5/7--|-------------------|
A|---------------7\5-|-3----5/7-----7------------|-------------------|
E|-------------------|---------------------------|-------------------|

   C             G              F               C              C           G
e|-----8-------------5--------|------------------------------|--------------------------|
B|----------------------------|------------------------------|------------8-----8-----8-|
G|-7/9---9\7-5h7-7b9(9)-9r7-5-|----------------------------5-|-5-----5-7/9---7/9---7/9--|
D|—---------------------------|-7p5-7p5----------------5h7---|-----7--------------------|
A|----------------------------|---------7\5-3h5-3------------|--------------------------|
E|----------------------------|------------------------------|--------------------------|

   Am           F                      C    G              F                          C
e|------------8-10b12--10b12r10-8h10-|-8----15b17r15-----|----------------------------------|
B|-10----8h10------------------------|----------------15b17r15-13-15--15b17r15-13h15-13-----|
G|-----------------------------------|-------------------|----------------------------------|
D|—----------------------------------|-------------------|----------------------------------|
A|-----------------------------------|-------------------|----------------------------------|
E|-----------------------------------|-------------------|----------------------------------|

Anything regarding this tab, please contact me on alexsamsoon@hotmail.com


************************************

| (n)  Ghost note
| h    Hammer-on
| p    Pull-off
| r    Release
| b    Bend
| /    Slide up
| \    Slide down

************************************
Suggest correction
comments
print report bad tab
10 comments total. Showing first comments.
+2 reply
smittyss13 10 Nov 12, 2004 07:00 PM

Right on the Money

0 reply
SamTheRunninMan 10 Feb 22, 2006 04:29 PM

Well done

0 reply
metaljunkie22 172 May 30, 2006 02:45 PM

this is like the same as one of the solos in solo ver 3

guest
You may want to rate the tab now too:
select rating
Wanna post a correction for this tab? Suggest correction