Oops, an error
Loading. Please wait.
We have an official Let It Be tab made by UG professional guitarists. Check out the tab »
×
53,641 views 90 this week
1 commentread comment
1 2 3 4 5
x 15
add to favorites
×
Save as Personal and add changes to this tab that will be seen only by you. Learn more ›
×
You can save this tab as Personal to edit and correct it or add notes. All changes will be seen only by you. Learn more »
launch autoscroll
font size
0
reset
how to read this tab
guitar tuner
backing track
0:00
0:00
edit
Autoscroll
slow
fast
+/-
esc
set tempo
stop
Author
Unregistered
[Verse]
    C               G                 Ami             Fmaj7
E|----------------------------------------------------------------0-|
B|--1-------1-------3---------3------1--------1----------1----3-----|
G|------0-------0-------0---------0------2--------2----2--------2---|
D|----2-------2-------0---------0------2--------2----3------3-------|
A|--3-----3--------------------------0------0-----------------------|
E|------------------3------3----------------------------------------|

    C               G                 F           C
E|-----------------------------------1------------------------------|
B|--1-------1-------3---------3----------1-1--1--1-------1----------|
G|------0-------0-------0---------0----2-------------0-------0------|
D|----2-------2-------0---------0----3-----2--0----2-------2--------| (x2)
A|--3-----3--------------------------------------3-----3------------|
E|------------------3------3----------------------------------------|

[Chorus]
    Ami            G              Fmaj7          C
E|-----------------0----------------------0-------------------------|
B|--1-------1--------------3------1---1-------1--1-------1----------|
G|------2-------2------0-------0----2-------2--------0--------0-----|
D|----2-------2------0-------0----3-----3----------2-------2--------|
A|--0-----0--------------------------------------3-----3------------|
E|-----------------3-----3------------------------------------------|

    C              G              F            C
E|--------------------------------1-----1--1------------------------|
B|--1-------1------3-------3---------1---------1---------1----------|
G|------0-------0------0-------0----2--------------0----------0-----|
D|----2-------2------0-------0----3-----2--0-----2----------2-------|
A|--3-----3------------------------------------3-------3------------|
E|-----------------3-----3------------------------------------------|

[Verse] (x2)
    C               G                 Ami             Fmaj7
E|----------------------------------------------------------------0-|
B|--1-------1-------3---------3------1--------1----------1----3-----|
G|------0-------0-------0---------0------2--------2----2--------2---|
D|----2-------2-------0---------0------2--------2----3------3-------|
A|--3-----3--------------------------0------0-----------------------|
E|------------------3------3----------------------------------------|

    C               G                 F           C
E|-----------------------------------1------------------------------|
B|--1-------1-------3---------3----------1-1--1--1-------1----------|
G|------0-------0-------0---------0----2-------------0-------0------|
D|----2-------2-------0---------0----3-----2--0----2-------2--------| (x2)
A|--3-----3--------------------------------------3-----3------------|
E|------------------3------3----------------------------------------|

[Chorus] (x2)
    Ami            G              Fmaj7          C
E|-----------------0----------------------0-------------------------|
B|--1-------1--------------3------1---1-------1--1-------1----------|
G|------2-------2------0-------0----2-------2--------0--------0-----|
D|----2-------2------0-------0----3-----3----------2-------2--------|
A|--0-----0--------------------------------------3-----3------------|
E|-----------------3-----3------------------------------------------|

    C              G              F            C
E|--------------------------------1-----1--1------------------------|
B|--1-------1------3-------3---------1---------1---------1----------|
G|------0-------0------0-------0----2--------------0----------0-----|
D|----2-------2------0-------0----3-----2--0-----2----------2-------|
A|--3-----3------------------------------------3-------3------------|
E|-----------------3-----3------------------------------------------|

[Outro]
                                 C
E|------------------------------------------------------------|
B|-------------------------------1----------------------------|
G|--2----0--0--------------------0----------------------------|
D|--3----2--0--2-----------------2----------------------------|
A|-------------3---1--0----------3----------------------------|
E|-----------------------3--1---------------------------------|

            
            
Suggest correction
Creating personal tab
Creating personal tab
You can edit any tab online and save it as your Personal.

You can edit, replace or remove any tab part or add personal notes – all changes will be seen only by you.

Personal tabs can be accessed anytime from any device, even offline.
Learn more »
comments
print report bad tab
1 comment total.
0 reply
ChrisBy 10 Jul 06, 2008 08:31 AM

simple copy of a beginner's song book. there's no beatles version like that. should better be placed under 'unsigned bands'. any other version suits better the orignal beatles version

guest
Wanna post a correction for this tab? Suggest correction