Oops, an error
Loading. Please wait.
We have an official Let It Be tab made by UG professional guitarists. Check out the tab »
×

Let It Be Chords

version 2
version 2

Whole song

352,650 views 441 this week
16 commentsread comments
1 2 3 4 5
x 156
add to favorites
×
Save as Personal and add changes to this tab that will be seen only by you. Learn more ›
×
You can save this tab as Personal to edit and correct it or add notes. All changes will be seen only by you. Learn more »
save as personal
new!
launch autoscroll
font size
0
reset
transpose
0
reset
display chords
guitar tuner
backing track
0:00
0:00
Autoscroll
slow
fast
+/-
esc
set tempo
stop
Author
Tuning
E A D G B E
Strumming
There is no strumming pattern for this song yet. and get +5 IQ
                         -------------------------
                           Let it be by beatles
                         -------------------------


   TAB*1:   e|-------------------------------------------------------------|
            B|-------------------------------------------------------------|
            G|-------------------------------------------------------------|
            D|-------------------------------------------------------------|
            A|------3--------2----0----------------------------------------|
            E|-------------------------------------------------------------|



    TAB*2:  e|---------------------------------------------2------0------3-|
            B|---------------------------------------------3------1------0-|
            G|---------------------------------------------2------0------0-|
            D|---------------------------------------------0------2------0-|
            A|----3--------2----0--------------------------0------3------2-|
            E|------------------------3--------1----0------0------0------3-|



          [Intro] 

          G  D  Em  C  G  D  C  (Tab*1)  G


          [Verse]


          G                     D                Em          C
          When I find myself in times of trouble mother Mary comes to me
          G                 D              C   (Tab*1)
          Speaking words of wisdom, let it be,
          G                 D               Em                C
          And in my hour of darkness she is standing right in front of me
          G                 D              C   (Tab*1)
          Speaking words of wisdom, let it be,


          [Chorus]

                 Em         D          C          G         
          Let it be, Let it be, Let it be, Let it be
                           D             C     (Tab*1)
          Whisper words of wisdom, let it be


          [Verse]
 
          G                     D                Em          C
          And when the broken hearted people living in the world agree
          G                 D              C   (Tab*1)
          There will be an answer, let it be
          G                     D                Em          C
          For though they may be parted there is still a chance that they will see
          G                D              C   (Tab*1)
          There will be an answer, let it be


          [Chorus]

                 Em         D          C          G         
          Let it be, Let it be, Let it be, Let it be
                           D             C     (Tab*1)
          There will be an answer, let it be

                 Em         D          C          G        
          Let it be, Let it be, Let it be, Let it be
                           D             C     (Tab*1)
          Whisper words of wisdom, let it be


    TAB*2:  e|---------------------------------------------2------0------3-|
            B|---------------------------------------------3------1------0-|
            G|---------------------------------------------2------0------0-|
            D|---------------------------------------------0------2------0-|
            A|----3--------2----0--------------------------0------3------2-|
            E|------------------------3--------1----0------0------0------3-|


          [Solo](vers)

G D Em C
G D C   (Tab*1)
G D Em C
G D C   (Tab*1)


          [Chorus]

                 Em         D          C          G        
          Let it be, Let it be, Let it be, Let it be
                           D             C     (Tab*1)
          Whisper words of wisdom, let it be


          [Verse]

G                     D                Em          C
          And when the night is cloudy, there is still a light that shines on me
          G                 D              C   (Tab*1)
          Shine until tomorrow, let it be
G                     D                Em          C
          I wake up to the sound of music mother Mary comes to me
          G                 D              C   (Tab*1)
          Speaking words of wisdom, let it be


          [Chorus]

                 Em         D          C          G         
          Let it be, Let it be, Let it be, Let it be
                        D             C     (Tab*1)
          There will be an answer, let it be

                 Em         D          C          G        
          Let it be, Let it be, Let it be, Let it be
                           D             C     (Tab*1)
          Whisper words of wisdom, let it be
Suggest correction
comments
print report bad tab
16 comments total. Showing first comments.
-2 reply
pipsinanapple 30 Jan 22, 2005 07:00 PM

its in the wrong key

-1 reply
-heartbreaker- 30 May 20, 2008 03:05 PM

this is terrible...

+1 reply
fist fullofmeat 128 Mar 04, 2010 11:41 AM

this isnt so bad but few things "tab 1" should b

TAB*1: |-------------------------------------------------
|----------------------------------------------
|----------------------------------------------
|----------------------------------------------
A--------------2----0-------------------------
E---------------------------------------------
cuz the C chord just b4 "tab 1" is the 3 on the a string then after this play a G chord sounds good if you dont get it hit me up

guest
You may want to rate the tab now too:
select rating
Wanna post a correction for this tab? Suggest correction