Oops, an error
Loading. Please wait.

Let It Be Chords

version 2
version 2

Whole song

343,185 views 603 this week
15 commentsread comments
1 2 3 4 5
x 131
add to favorites
launch autoscroll
font size
0
reset
transpose
0
reset
display chords
guitar tuner
×
Best way to learn
"Let It Be"
Autoscroll
slow
fast
+/-
esc
set tempo
stop
Author
                         -------------------------
                           Let it be by beatles
                         -------------------------


   TAB*1:   e|-------------------------------------------------------------|
            B|-------------------------------------------------------------|
            G|-------------------------------------------------------------|
            D|-------------------------------------------------------------|
            A|------3--------2----0----------------------------------------|
            E|-------------------------------------------------------------|



    TAB*2:  e|---------------------------------------------2------0------3-|
            B|---------------------------------------------3------1------0-|
            G|---------------------------------------------2------0------0-|
            D|---------------------------------------------0------2------0-|
            A|----3--------2----0--------------------------0------3------2-|
            E|------------------------3--------1----0------0------0------3-|



          [Intro] 

          G  D  Em  C  G  D  C  (Tab*1)  G


          [Verse]


          G                     D                Em          C
          When I find myself in times of trouble mother Mary comes to me
          G                 D              C   (Tab*1)
          Speaking words of wisdom, let it be,
          G                 D               Em                C
          And in my hour of darkness she is standing right in front of me
          G                 D              C   (Tab*1)
          Speaking words of wisdom, let it be,


          [Chorus]

                 Em         D          C          G         
          Let it be, Let it be, Let it be, Let it be
                          D             C     (Tab*1)
          Wisper words of wisdom, let it be


          [Verse]
 
          G                     D                Em          C
          And when the broken hearted people living in the world agree
          G                 D              C   (Tab*1)
          There will be an answer, let it be
          G                     D                Em          C
          For though they may be parted there is still a chance that they will see
          G                 D              C   (Tab*1)
          There will be an answer, let it be


          [Chorus]

                 Em         D          C          G         
          Let it be, Let it be, Let it be, Let it be
                          D             C     (Tab*1)
          Ther will be an answer, let it be

                 Em         D          C          G        
          Let it be, Let it be, Let it be, Let it be
                          D             C     (Tab*1)
          Wisper words of wisdom, let it be


    TAB*2:  e|---------------------------------------------2------0------3-|
            B|---------------------------------------------3------1------0-|
            G|---------------------------------------------2------0------0-|
            D|---------------------------------------------0------2------0-|
            A|----3--------2----0--------------------------0------3------2-|
            E|------------------------3--------1----0------0------0------3-|


          [Solo](vers)

G D Em C
G D C   (Tab*1)
G D Em C
G D C   (Tab*1)


          [Chorus]

                 Em         D          C          G        
          Let it be, Let it be, Let it be, Let it be
                          D             C     (Tab*1)
          Wisper words of wisdom, let it be


          [Verse]

G                     D                Em          C
          And when the night is cloudy, there is still a light that shines on me
          G                 D              C   (Tab*1)
          Shine until tomorrow, let it be
G                     D                Em          C
          I wake up to the sound of music mother Mary comes to me
          G                 D              C   (Tab*1)
          Speaking words of wisdom, let it be


          [Chorus]

                 Em         D          C          G         
          Let it be, Let it be, Let it be, Let it be
                          D             C     (Tab*1)
          Ther will be an answer, let it be

                 Em         D          C          G        
          Let it be, Let it be, Let it be, Let it be
                          D             C     (Tab*1)
          Wisper words of wisdom, let it be
Suggest correction
comments
print report bad tab
15 comments total. Showing first comments.
-1 reply
pipsinanapple 20 Jan 22, 2005 07:00 PM

its in the wrong key

-2 reply
MilANimaL 10 Oct 24, 2007 07:10 PM

No, wait! Play it backward! I can hear something like: "Your mother`s a B-i-t-c-h?"

0 reply
-heartbreaker- 30 May 20, 2008 03:05 PM

this is terrible...

guest
You may want to rate the tab now too:
select rating
Wanna post a correction for this tab? Suggest correction