Oops, an error
Loading. Please wait.

Let It Be Bass Tab

version 3
version 3
35,475 views 42 this week
5 commentsread comments
1 2 3 4 5
excellent!
x 9
add to favorites
launch autoscroll
font size
0
reset
guitar tuner
Tab Pro tools
  • play this tab
  • loop segment
  • change instrument
  • show fretboard
  • metronome
×
Best way to learn
"Let It Be"
Autoscroll
slow
fast
+/-
esc
set tempo
stop
Contributor
                                            "LET IT BE"
                                    As recorded by The Beatles
                                  From the 1970 album LET IT BE

                                         Lennon/McCartney
                                     Transcribed by: Choreman

==================================================================================================

Tab Legend:
/ - slide in/out upwards
\ - slide in/out downwards


Duration Legend:
W   whole
H   half
Q   quarter
E   eight
S   sixteen
+   note tied to previous
.   doted note


Play in this order:

Fill 1 [starts on 3rd verse (0:53)]
Fill 3
Fill 4
Fill 5
Fill 6
Fill 7
Fill 4
Fill 2
Fill 3
Fill 4
Fill 5
Fill 8
Fill 9


Tempo: 67
4/4


Fill 1
  W     W     W     Q  E  E  Q.  E
|-----|-----|-----|--------------0--|
|-----|-----|-----|----2--0---------|
|-----|-----|-----|----------3------|
|-----|-----|-----|-----------------|


Fill 2
  H    H      Q   E  E  Q   E  E    Q.  E  Q. E   Q   E  E  Q.  E
|-5---------|-2---2---------------|-------------|------------------|
|------5----|--------5--3---3--5--|-----2--5----|-3---2--0------5--|
|-----------|---------------------|-3-----------|-----------3------|
|-----------|---------------------|-------------|------------------|


Fill 3
  Q.  S S H      Q.  E  Q   Q     Q.  E  H      Q   E  E  Q   S S S S
|-5-----0-0----|-2---0------5---|--------0----|---------------5-5-4-4-|
|--------------|--------3-------|-----2-------|-3---2--0--------------|
|--------------|----------------|-3-----------|-----------3-----------|
|--------------|----------------|-------------|-----------------------|


Fill 4
  Q   E  E E  E  E  E   Q   E  S S Q   +S  S S S   E  E  E  E  Q   E  E
|-2---2----0--0--0----|----------5---------------|----------------------|
|---------------------|-3---3--------------2-3/5-|-------2--3--5---5----|
|---------------------|------------3---(3)-------|-3--3-----------------|
|---------------------|--------------------------|----------------------|

  Q   E  E  Q  E  E
|--------------5-----|
|-3---2--0--------5--|
|-----------3--------|
|--------------------|


Fill 5
  Q   E  E  Q   E  E    Q   E  E  Q   S S S S   Q   E  E Q.   E
|-2---2--5---------5--|--------5--------------|------------------|
|-----------5---5-----|-3---3-----------2-3/5-|-----2--3--5---5--|
|---------------------|-----------3---3-------|-3----------------|
|---------------------|-----------------------|------------------|

  Q   E  E  E  S S S S E
|--------------5-5-5-5-5--|
|-3---2--0----------------|
|-----------3-------------|
|-------------------------|


Fill 6
  Q   E  E  Q   E  E    Q   Q   H      H    H
|---------------3--2--|-0------------|------5----|---------5---5-5-5--|
|-3---2--0------------|-----3--------|-3---------|-5---3--------------|
|-----------3---------|---------3----|-----------|--------------------|
|---------------------|--------------|-----------|--------------------|


Fill 7
  Q   S E  S Q.  E    S E. E  E  Q   E E    Q   E  S S Q   E  E
|-------------------|-2-2--5--------------|-----5----------------|
|-------2--3-5---5--|---------5--3---5/7--|--------2-3-5------5--|
|-3---3-------------|---------------------|-3--------------------|
|-------------------|---------------------|----------------3-----|

  E. S E  E  S S S S S S S S   Q   E  E  E  S S S S E
|----------------5-5-5---2---|-------------------------|
|-3--3-2--0------------5---5-|-----2--3--5--5-5-5-5-5--|
|------------3-3-------------|-3-----------------------|
|----------------------------|-------------------------|

  Q   E  E  Q   E  E    E. S E  E  Q   E  E    E. S E  E  E  S S S S E
|-2----------------5\-|----5-5---------------|---------------5-5-5\4-4--|
|-----5--3--3---3-----|---------2--5------5--|-3--3-2--0----------------|
|---------------------|-3--------------------|------------3-------------|
|---------------------|----------------3-----|--------------------------|


Fill 8
  Q   E  E  Q   E  E    Q   E  E  Q   S S S S   Q   E  E  Q   E  E
|-2---5\----0---5\----|-----5\--------5-----5-|---------------------|
|---------------------|-3---------------5/7---|-----2--3--5------0--|
|---------------------|-----------3-----------|-3-------------2-----|
|---------------------|-----------------------|---------------------|

  Q   E  E  Q   S S E
|---------------5-5-5--|
|-3---2--0-------------|
|-----------3----------|
|----------------------|


Fill 9
  Q   E  E  Q   E  E    Q   Q   H      +W
|---------------3--2--|-0------------|---------|
|-3---2--0------------|-----3--------|---------|
|-----------3---------|---------3----|-(3)-----|
|---------------------|--------------|---------|
comments
print report bad tab
5 comments total. Showing first comments.
+1 reply
choreman wrote on December 15 2009, 12:56 pm

wops, i missed the tmming on the last part of Fill 6, but here it is:

Q Q Q S S E
|---------5---5-5-5--|
|-5---3--------------|
|--------------------|
|--------------------|

it's just the last compass

+1 reply
eaglesfan8125 wrote on December 18 2009, 06:01 pm

Finally! someone with the real bass tab for this song that's not just root notes!

0 reply
foamykage wrote on January 6 2011, 02:08 am

really accurate great job, but timing would help a lot, like how you said come in at 53 sec.

I want to post or [tab]
guest
You may want to rate the tab now too:
select rating
Please do not post tabs as comments. Select "correction" instead!