Oops, an error
Loading. Please wait.

Let It Be Tab

version 3
21,970 views 6 this week
2 commentsread comments
1 2 3 4 5
accurate
x 3
add to favorites
launch autoscroll
font size
0
reset
how to read this tab
guitar tuner
Tab Pro tools
  • play this tab
  • loop segment
  • change instrument
  • show fretboard
  • metronome
×
Best way to learn
"Let It Be"
Autoscroll
slow
fast
+/-
esc
set tempo
stop
Contributor
Not positive on the Inturlude or the Outro so email me if you find any mistakes
( jarrod.glover@gmail.com ) Thanks guys and gals




Verse 1
       A              E                F#m         D
When I find myself in times of trouble Mother Mary comes to me,
A                 E                D C#m Bm A
Speaking words of wisdom, Let it be,
        A                       E                     F#m                   D
And in my hour of darkness she is standing right in front of me,
A                            E                      D C#m Bm A
Speaking words of wisdom, Let it be,

Chorus
       F#m        E          D          A
Let it be, Let it be, Let it be, Let it be,
A                E                      D C#m Bm A
Whisper words of wisdom, let it be.

Verse 2
    A               E               F#m           D
And when the broken hearted people, Living in the world agree,
A                E               D C#m Bm A
There will be an answer, let it be
    A                E       F#m              D
For tho' they may be parted, There is still a chance that they will see,
A                E                D C#m Bm A
There will be an answer, let it be

Chorus 2
       F#m        E              D             A
Let it be, Let it be, Let it be, Let it be,
A                E               D C#m Bm A
There will be an answer, let it be, 
       F#m        E          D             A
Let it be, Let it be, Let it be, Let it be,
A                E                    D C#m Bm A
Whisper words of wisdom, let it be.

Verse 3
    A                 E        F#m             D
And when the night is cloudy, There is still a light that shines on me,
A           E                   D C#m Bm A
Shine until tomorrow, let it be,
  A              E               F#m         D
I wake up to the sound of music, Mother Mary comes to me,
A                 E                D C#m Bm A
Speaking words of wisdom, let it be

Chorus 2
       F#m        E          D          A
Let it be, Let it be, Let it be, Let it be,
A                        E          D C#m Bm A
There will be an answer, let it be, 
       F#m        E          D          A
Let it be, Let it be, Let it be, Let it be,
A                E                D C#m Bm A
Whisper words of wisdom, let it be.

Interlude
A---8--7--5--3------------------|
E---------------6--5--3--1--0---|

A---8--7--5--3-----------3--3---|
E---------------6--5--3---------|


Solo
e------------------------------------------------------------------|
b------------------------------------------------------------------|
g------------------------------------------------------------------|
d--------------------------------------------5—7p5-----------------|
a----------3--3—7p5--3--5--5-------3h5/7-------------7p5--3--------|
e------3h5--------------------3h5----------------------------------|

e------------------------------------------------------------------|
b-----------------------------8------------------------------------|
g---------------------5--7/9-----9/7-9/7--5--7--5------------------|
d------5--5-----5--7-------------------------------7--5------------|
a---7--------7-------------------------------------------7--5--3---|
e------------------------------------------------------------------|

e-----------------------------------------------------------------|
b-----------------------------------------------8--10--8----------|
g----------------------9--7—5h7--------------9------------9--7--5-|
d---------------7--5---------------7---5--7-----------------------|
a—-------7--3-----------------------------------------------------|
e---3h5-----------------------------------------------------------|

e---------------8-------------12--10--8--------|
b------------------10p8------------------10--8-|
g--------5/9--------------9--------------------|
d—--5h7----------------------------------------|
a----------------------------------------------|
e----------------------------------------------|

e-------------------------|
b------10p8---------------|
g---9--------9\7--5h7--5--|
d-------------------------|
a-------------------------|
e-------------------------|

Outro

A---8--7--5--3-----------------|
E---------------6--5--3--1--0--|
comments
We did not receive enough feedback on this tab! Please rate:
print report bad tab
1 2 3 4 5
2 comments total.
0 reply
urthunderstruck wrote on November 20 2005, 04:15 pm

this tab is completely off. its got the right intervals, but the notes arent even close

0 reply
_vampire wrote on January 6 2007, 06:59 am

Yeah it's to high, but maybe someone can sing to that. 0_0

I want to post or [tab]
guest
You may want to rate the tab now too:
select rating
Please do not post tabs as comments. Select "correction" instead!