Oops, an error
Loading. Please wait.

Like Dreamers Do Bass Tab

version 2
version 2

Whole song

Interactive

2,413 views 9 this week
no commentswrite comment
1 2 3 4 5
please rate
add to favorites
launch autoscroll
font size
0
reset
guitar tuner
Tab Pro tools
  • play this tab
  • loop segment
  • change instrument
  • show fretboard
  • metronome
×
Best way to learn
"Like Dreamers Do"
Autoscroll
slow
fast
+/-
esc
set tempo
stop
Contributor
Like Dreamers Do
The Beatles
Written by John Lennon and Paul McCartney.

A song from the Anthology. One of Paul's first songs.

Intro:
G|------- ------- ------- -------|------- ------- ------- -------|
D|3---------------4--------------|5---------------6--------------|
A|--------4---------------5------|--------6---------------7------|
E|-------------------------------|-------------------------------|


Verse:
G|------- ------- ------- -------|------- ------- ------- -------|
D|7------------------------------|7------------------------------|
A|-------------------------------|-------------------------------|
E|-------------------------------|-------------------------------|
  I,                              I   saw     a   girl


G|------- ------- ------- -------|------- ------- ------- -------|
D|4------------------------------|4------------------------------|
A|-------------------------------|-------------------------------|
E|-------------------------------|-------------------------------|
  in  my      dreams,                         And     so


G|------- ------- ------- -------|------- ------- ------- -------|
D|-------------------------------|-------------------------------|
A|-------------------------------|-------------------------------|
E|7------------------------------|7------------------------------|
  it  seems                                   that    I       will


G|------- ------- ------- -------|------- ------- ------- -------|
D|-------------------------------|-------------------------------|
A|4------------------------------|7-------5-------4--------------|
E|-------------------------------|------------------------7------|
  love                            her                 Oh,


G|------- ------- ------- -------|------- ------- ------- -------|
D|-------------------------------|-------------------------------|
A|------------4-----------7------|------------4-----------7------|
E|5------------------------------|5------------------------------|
  you,                            you were    the girl


G|------- ------- ------- -------|------- ------- ------- -------|
D|4-----------4------------------|4-----------4-----------4------|
A|----------------4-------4------|----------------4--------------|
E|-------------------------------|-------------------------------|
  in  my      dreams,                         And     so


G|------- ------- ------- -------|------- ------- ------- -------|
D|-------------------------------|-------------------------------|
A|----------------9-------9------|----------------9--------------|
E|7-----------7------------------|7-----------7-----------7------|
  it  seems                                   that    I       will


G|------- ------- ------- -------|------- ------- ------- -------|
D|-------------------------------|-------------------------------|
A|-------------------------------|7-------5-------4--------------|
E|9-----------9-----------9------|------------------------7------|
  love                            you                     And

Refrain:
G|------- ------- ------- -------|------- ------- ------- -------|
D|-------------------------------|-------------------------------|
A|-------------------------------|-------------------------------|
E|5-----------5-----------5------|5-----------5-----------5------|
  I                                               waited      for


G|------- ------- ------- -------|------- ------- ------- -------|
D|-------------------------------|-------------------------------|
A|4-----------4-----------4------|4-----------4-----------4------|
E|-------------------------------|-------------------------------|
      your    kiss,                               Waited      for


G|------- ------- ------- -------|------- ------- ------- -------|
D|------------0---4-------3------|2------------------------------|
A|2------------------------------|-------------------------------|
E|-------------------------------|-------------------------------|
      the bliss                           like    drea -  mers


G|------- ------- ------- -------|------- ------- ------- -------|
D|-------------------------------|-------------------------------|
A|------------4---7-------4------|--------2-------3-------4------|
E|5------------------------------|5------------------------------|
  do                                                      And

Bridge:
G|------- ------- ------- -------|------- ------- ------- -------|
D|-------------------------------|-------------------------------|
A|5-----------5-----------5------|7-----------7-----------7------|
E|-------------------------------|-------------------------------|
  I,                                   I,    I,   I,   I,    I,


G|------- ------- ------- -------|------- ------- ------- -------|
D|-------------------------------|-------------------------------|
A|------------4-----------7------|------------4-----------7------|
E|5------------------------------|5------------------------------|
  I,                                      Oh,     I'll    be  there,


G|------- ------- ------- -------|------- ------- ------- -------|
D|-------------------------------|-------------------------------|
A|----------------9-------9------|----------------9--------------|
E|7-----------7------------------|7-----------7-----------7------|
                              yeah,               waiting     for


G|------- ------- ------- -------|------- ------- ------- -------|
D|-------------------------------|-------------------------------|
A|7-----------7-----------7------|7-----------7-----------7------|
E|-------------------------------|-------------------------------|
  you,        you,        you,    you,        you,        you

Verse:
G|------- ------- ------- -------|------- ------- ------- -------|
D|-------------------------------|-------------------------------|
A|------------4-----------7------|------------4-----------7------|
E|5------------------------------|5------------------------------|
  You,                            you came    just one        dream


G|------- ------- ------- -------|------- ------- ------- -------|
D|4-----------4------------------|4-----------4-----------4------|
A|----------------4-------4------|----------------4--------------|
E|-------------------------------|-------------------------------|
          a - go,                                 And now


G|------- ------- ------- -------|------- ------- ------- -------|
D|-------------------------------|-------------------------------|
A|----------------9-------9------|----------------9--------------|
E|7-----------7------------------|7-----------7-----------7------|
  I   know                                    that    I       will


G|------- ------- ------- -------|------- ------- ------- -------|
D|-------------------------------|-------------------------------|
A|-------------------------------|7-------5-------4--------------|
E|9-----------9-----------9------|------------------------7------|
  love                            you                 Oh,


G|------- ------- ------- -------|------- ------- ------- -------|
D|-------------------------------|-------------------------------|
A|------------4-----------7------|------------4-----------7------|
E|5------------------------------|5------------------------------|
  I                               knew when   you first       said


G|------- ------- ------- -------|------- ------- ------- -------|
D|4-----------4------------------|4-----------4-----------4------|
A|----------------4-------4------|----------------4--------------|
E|-------------------------------|-------------------------------|
          hello                                   That's how  I


G|------- ------- ------- -------|------- ------- ------- -------|
D|-------------------------------|-------------------------------|
A|----------------9-------9------|----------------9--------------|
E|7-----------7------------------|7-----------7-----------7------|
  know                                        that    I       will


G|------- ------- ------- -------|------- ------- ------- -------|
D|-------------------------------|-------------------------------|
A|-------------------------------|7-------5-------4--------------|
E|9-----------9-----------9------|------------------------7------|
  love                            you                     And

Refrain:
G|------- ------- ------- -------|------- ------- ------- -------|
D|-------------------------------|-------------------------------|
A|-------------------------------|-------------------------------|
E|5-----------5-----------5------|5-----------5-----------5------|
  I                                               waited      for


G|------- ------- ------- -------|------- ------- ------- -------|
D|-------------------------------|-------------------------------|
A|4-----------4-----------4------|4-----------4-----------4------|
E|-------------------------------|-------------------------------|
      your    kiss,                               Waited      for


G|------- ------- ------- -------|------- ------- ------- -------|
D|------------0---4-------3------|2------------------------------|
A|2------------------------------|-------------------------------|
E|-------------------------------|-------------------------------|
      the bliss                           like    drea -  mers


G|------- ------- ------- -------|------- ------- ------- -------|
D|-------------------------------|-------------------------------|
A|------------4---7-------4------|--------2-------3-------4------|
E|5------------------------------|5------------------------------|
  do                                                      And

Bridge:
G|------- ------- ------- -------|------- ------- ------- -------|
D|-------------------------------|-------------------------------|
A|5-----------5-----------5------|7-----------7-----------7------|
E|-------------------------------|-------------------------------|
  I,                                   I,    I,   I,   I,    I,


G|------- ------- ------- -------|------- ------- ------- -------|
D|-------------------------------|-------------------------------|
A|------------4-----------7------|------------4-----------7------|
E|5------------------------------|5------------------------------|
  I,                                      Oh,     I'll    be  there,


G|------- ------- ------- -------|------- ------- ------- -------|
D|-------------------------------|-------------------------------|
A|----------------9-------9------|----------------9--------------|
E|7-----------7------------------|7-----------7-----------7------|
                              yeah,               waiting     for


G|------- ------- ------- -------|------- ------- ------- -------|
D|-------------------------------|-------------------------------|
A|7-----------7-----------7------|7-----------7-----------7------|
E|-------------------------------|-------------------------------|
  you,        you,        you,    you,        you,        you

Verse:
G|------- ------- ------- -------|------- ------- ------- -------|
D|-------------------------------|-------------------------------|
A|------------4-----------7------|------------4-----------7------|
E|5------------------------------|5------------------------------|
  You,                            you came    just one        dream


G|------- ------- ------- -------|------- ------- ------- -------|
D|4-----------4------------------|4-----------4-----------4------|
A|----------------4-------4------|----------------4--------------|
E|-------------------------------|-------------------------------|
          a - go,                                 And now


G|------- ------- ------- -------|------- ------- ------- -------|
D|-------------------------------|-------------------------------|
A|----------------9-------9------|----------------9--------------|
E|7-----------7------------------|7-----------7-----------7------|
  I   know                                    that    I       will


G|------- ------- ------- -------|------- ------- ------- -------|
D|-------------------------------|-------------------------------|
A|-------------------------------|7-------5-------4--------------|
E|9-----------9-----------9------|------------------------7------|
  love                            you                 Oh,


G|------- ------- ------- -------|------- ------- ------- -------|
D|-------------------------------|-------------------------------|
A|------------4-----------7------|------------4-----------7------|
E|5------------------------------|5------------------------------|
  I                               knew when   you first       said


G|------- ------- ------- -------|------- ------- ------- -------|
D|4-----------4------------------|4-----------4-----------4------|
A|----------------4-------4------|----------------4--------------|
E|-------------------------------|-------------------------------|
          hello                                   That's how  I


G|------- ------- ------- -------|------- ------- ------- -------|
D|-------------------------------|-------------------------------|
A|----------------9-------9------|----------------9--------------|
E|7-----------7------------------|7-----------7-----------7------|
  know                                        that    I       will


G|------- ------- ------- -------|------- ------- ------- -------|
D|-------------------------------|-------------------------------|
A|-------------------------------|7-------5-------4--------------|
E|9-----------9-----------9------|------------------------7------|
  love                            you                     And

Refrain:
G|------- ------- ------- -------|------- ------- ------- -------|
D|-------------------------------|-------------------------------|
A|-------------------------------|-------------------------------|
E|5-----------5-----------5------|5-----------5-----------5------|
  I                                               waited      for


G|------- ------- ------- -------|------- ------- ------- -------|
D|-------------------------------|-------------------------------|
A|4-----------4-----------4------|4-----------4-----------4------|
E|-------------------------------|-------------------------------|
      your    kiss,                               Waited      for


G|------- ------- ------- -------|------- ------- ------- -------|
D|------------0---4-------3------|2------------------------------|
A|2------------------------------|-------------------------------|
E|-------------------------------|-------------------------------|
      the bliss                           like    drea -  mers


G|------- ------- ------- -------|------- ------- ------- -------|
D|------------------------4------|7-----------7-----------7------|
A|------------4---7--------------|-------------------------------|
E|5------------------------------|-------------------------------|
  do                                  Oh,         like dreamers

Outro:
G|------- ------- ------- -------|------- ------- ------- -------|
D|7-----------7-----------7------|7-----------7-----------7------|
A|-------------------------------|-------------------------------|
E|-------------------------------|-------------------------------|
  do                                      Like    drea -  mers do


G|------- ------- ------- -------|------- ------- ------- -------|
D|7-----------7-----------7------|7-----------7-----------7------|
A|-------------------------------|-------------------------------|
E|-------------------------------|-------------------------------|



G|------- ------- ------- -------|------- ------- ------- -------|
D|3---------------4--------------|5---------------6--------------|
A|--------4---------------5------|--------6---------------7------|
E|-------------------------------|-------------------------------|



G|------- ------- ------- -------|------- ------- ------- -------|
D|7-----------4------------------|----------------7--------------|
A|----------------7-------4------|-------------------------------|
E|-------------------------------|5------------------------------|

Please e-mail me for any corrections, or write a comment.
comments
We did not receive enough feedback on this tab! Please rate:
print report bad tab
1 2 3 4 5
I want to post or [tab]
guest
You may want to rate the tab now too:
select rating
Please do not post tabs as comments. Select "correction" instead!