Oops, an error
Loading. Please wait.

Little Child Tab

version 1
version 1

Whole song

Interactive

1,717 views 1 this week
no commentswrite comment
1 2 3 4 5
please rate
add to favorites
launch autoscroll
font size
0
reset
how to read this tab
guitar tuner
Tab Pro tools
  • play this tab
  • loop segment
  • change instrument
  • show fretboard
  • metronome
×
Best way to learn
"Little Child"
Autoscroll
slow
fast
+/-
esc
set tempo
stop
Contributor
    ---------------------------------------------------------

    BEATLES - LITTLE CHILD (Lennon & McCartney) From WITH THE
              BEATLES album. Released on 22nd November 1963.
   
    ---------------------------------------------------------

    Tabbed by:PJVillanueva






    In spite of being maybe too light, compared to their tougher 
    aim and look a couple of years before it's easy to fancy the 
    group playing something similar in Hamburg, though there are 
    not any guitars on this recording. Just bass, drums, piano, 
    harmonica and vocals. John's thoughtless wit performing his
    harmonica part is very touching. Paul plays also rhythm on 
    piano, as he started doing in the old days, when his Rosetti
    Solid 7 broke and before switching to bass.







    Little child, little child,
    Little child, won't you dance with me?
    I'm so sad and lonely,
    Baby take a chance with me.

    If you want someone
    To make you feel so fine,
    Then we'll have some fun
    When you're mine, all mine,
    So come, come on, come on.

    Little child, little child,
    Little child, won't you dance with me?
    I'm so sad and lonely,
    Baby take a chance with me.

                SOLO

    When you're by my side,
    You're the only one,
    Don't you run and hide,
    Just come on, come on,
    So come on, come on, come on.

    Little child, little child,
    Little child, won't you dance with me?
    I'm so sad and lonely,
    Baby take a chance with me Oh yeah
    Baby take a chance with me Oh yeah
    Baby take a chance with me Oh yeah ...





    HARMONICA INTRO
    E                               A                       
  e|7------ ------- ------- -------|5------ ------- ------- -------|
  B|9------------------------------|5------------------------------|
  G|9------------------------------|6------------------------------|
  D|-------------------------------|-------------------------------|
  A|-------------------------------|-------------------------------|
  E|-------------------------------|-------------------------------| ...


   
            E7          E9                              E7
  e|------- ------- ------- -------|------- ------- ------- -------|
  B|--------9-----------7-------7--|7-------7-----------9----------|
  G|--------7-----------7-------7--|7-------7-----------7----------|
  D|--------9-----------6-------6--|6-------6-----------9----------|
  A|-------------------------------|-------------------------------|
  E|-------------------------------|-------------------------------|
                                                            Little
                                                                child

    00:06

  e|------- ------- ------- -------|------- ------- ------- -------|
  B|--------9-----------7----------|--------9-----------7----------|
  G|--------7-----------7----------|--------7-----------7----------|
  D|--------9-----------6----------|--------9-----------6----------|
  A|-------------------------------|-------------------------------|
  E|-------------------------------|-------------------------------|
                            little                          little
                                child                           child

    E                       A               E       D   E
  e|------- ------- ------- 5---5--|------- 4------ 2---4-- -------|
  B|9-------9---------------5---5--|--------5-------3---5----------|
  G|9---9---9---9-----------6---6--|--------4-------2---4----------|
  D|9-------9----------------------|-------------------------------|
  A|-------------------------------|-------------------------------|
  E|-------------------------------|-------------------------------|
            won't   dance   with                                I'm
                you             me

            B                               A
  e|------- ------- ------- -------|------- ------- ------- -------|
  B|--------4-----------4----------|--------2---2-------2---2------|
  G|--------4-----------4----------|--------2---2-------2---2------|
  D|--------4-----------4----------|--------2---2-------2---2------|
  A|-------------------------------|-------------------------------|
  E|-------------------------------|-------------------------------|
            so      sad     and     lonely
 

            F#7                                                 E7
  e|------- 0---0-- ----0-- 0------|------- ------- ------- -------|
  B|--------2---2-------2---2------|----------------------------9--|
  G|--------3---3-------3---3------|----------------7---9-------7--|
  D|--------4---4-------4---4------|--------9-------------------9--|
  A|-------------------------------|----------------5---7----------|
  E|-------------------------------|--------7----------------------|
    Baby    take    chance  with                            Little
                a               me                              child

    00:19
                    E9                      E7      E9
  e|------- ------- ------- -------|------- ------- ------- -------|
  B|----9---9-------7---7----------|--------9-------7---7----------|
  G|----7---7-------7---7----------|--------7-------7---7----------|
  D|----9---9-------6---6----------|--------9-------6---6----------|
  A|-------------------------------|-------------------------------|
  E|-------------------------------|-------------------------------|
                            little                          little
                                child                           child
   
        E7                  A               E       D   E       B
  e|------- ------- ------- 5---5--|------- 4------ 2---4-- -------|
  B|----9---9---------------5---5--|--------5-------3---5-------4--|
  G|----7---7---------------6---6--|--------4-------2---4-------4--|
  D|----9---9----------------------|----------------------------4--|
  A|-------------------------------|-------------------------------|
  E|-------------------------------|-------------------------------|
            won't   dance   with                                I'm
                you             me

                                            A
  e|------- ------- ------- -------|------- ------- ------- -------|
  B|--------4-----------4----------|--------2---2-------2-------2--|
  G|--------4-----------4----------|--------2---2-------2-------2--|
  D|--------4-----------4----------|--------2---2-------2-------2--|
  A|-------------------------------|-------------------------------|
  E|-------------------------------|-------------------------------|
            so      sad     and     lonely
 

            F#7             B               E
  e|------- 0---0-- ------- -------|------- 4------ ------- -------|
  B|--------2---2-----------4------|--------5----------------------|
  G|--------3---3-----------4------|--------4-------4---4----------|
  D|--------4---4-----------4------|----------------2---2----------|
  A|-------------------------------|-------------------------------|
  E|-------------------------------|-------------------------------|
    Baby    take    chance  with                            If  you
                a               me   

    00:32             
            E7                              B7
  e|------- ------- ------- -------|------- ------- ------- -------|
  B|--------3-----------3----------|--------7----------------------|
  G|--------1-----------1----------|--------8-------7---9----------|
  D|--------2-----------2----------|--------7-------------------9--|
  A|-------------------------------|----------------5---7-------7--|
  E|-------------------------------|--------7-------------------0--|
    want    someone     to  make    feel        fine        Then
                                you     so                      we'll

            E7                                   
  e|------- ------- ------- -------|------- ------- ------- -------|
  B|--------3-----------3----------|3-----------3---3-------3------|
  G|--------1-----------1----------|1-----------1---1-------1------|
  D|--------2-----------2----------|2-----------2---2-------2------|
  A|-------------------------------|-------------------------------|
  E|-------------------------------|-------------------------------|
    have    some    fun     when    mine        mine        so  come
                                you're  all

            F#          F#7                 B
  e|------- ------- ------- -------|------- ------- ----7-- ----7--|
  B|--------2-----------5-------5--|--------------------7-------7--|
  G|--------3---3-------3-------3--|--------------------8-------8--|
  D|--------4-----------4-------4--|--------9----------------------|
  A|-------------------------------|-------------------------------|
  E|-------------------------------|--------7-------7--------------|
    on      come                come                        Little
                on                  on                          child

    00:41                                                      

  e|------- ------- ------- -------|------- ------- ------- -------|
  B|--------9-----------7----------|--------9-------9---9----------|
  G|--------7-----------7----------|--------7-------7---9----------|
  D|--------9-----------6----------|--------9-------9---9----------|
  A|-------------------------------|-------------------------------|
  E|-------------------------------|-------------------------------|
                            little                          little
                                child                           child
   

  e|------- ------- ------- 5------|------- 4---4-- 2---4-- -------|
  B|----9---9---9-----------5------|--------5---5---3---5-------4--|
  G|----7---7---7-----------6------|--------4---4---2---4-------4--|
  D|----9---9---9------------------|----------------------------4--|
  A|-------------------------------|-------------------------------|
  E|-------------------------------|-------------------------------|
            won't   dance   with                                I'm
                you             me


  e|------- ------- ------- -------|------- ------- ------- -------|
  B|--------4---4-------4---4------|--------2---2-------2---2---2--|
  G|--------4---4-------4---4------|--------2---2-------2---2---2--|
  D|--------4---4-------4---4------|--------2---2-------2---2---2--|
  A|-------------------------------|-------------------------------|
  E|-------------------------------|-------------------------------|
            so      sad     and     lonely
 


  e|------- ------- ------- -------|------- ------- ------- -------|
  B|--------5-------4-------4---4--|----3---3---3-------3---3------|
  G|--------3-------4-------2---2--|----1---1---1-------1---1------|
  D|--------4-------4-------4---4--|----2---2---2-------2---2------|
  A|-------------------------------|-------------------------------|
  E|-------------------------------|-------------------------------|
    Baby    take    chance  with                            If  you
                a               me 
  

    HARMONICA SOLO
    00:54
    E7
  e|------- ------- ------- -------|------- ----0-- ------- -------|
  B|3-------3-----------3---3------|3-------3---3-------3----------|
  G|1-------1-----------1---1------|1-------1---1-------1----------|
  D|2-------2-----------2---2------|2-------2-----------2----------|
  A|-------------------------------|-------------------------------|
  E|-------------------------------|-------------------------------|


                                                E9          E7
  e|------- ------- 0------ -------|------- ----2-- ------- -------|
  B|--------3-------3---3----------|3-----------3-----------3------|
  G|--------1-------1---1----------|1-----------1-----------1------|
  D|--------2-----------2----------|2-----------2-----------2------|
  A|-------------------------------|-------------------------------|
  E|-------------------------------|-------------------------------|


    A
  e|------- ------- ------- -------|------- ------- ------- -------|
  B|2-------2-----------2---2------|2-------2---------------2------|
  G|2-------2-----------2---2------|2-------2---------------2------|
  D|2-------2-----------2---2------|2-------2---------------2------|
  A|-------------------------------|-------------------------------|
  E|-------------------------------|-------------------------------|


    E7 
  e|------- ------- ------- -------|------- ------- ------- -------|
  B|3-------3-------3---3-------3--|3-------3-------3---3----------|
  G|1-------1-------1---1-------1--|1-------1-------1---1----------|
  D|2-------2-------2---2-------2--|2-------2-------2---2----------|
  A|-------------------------------|-------------------------------|
  E|-------------------------------|-------------------------------|


    B                                       A
  e|2------ 2------ 2---2-- ----2--|------- 0------ 0---0-- -------|
  B|4-------4-------4---4-------4--|--------2-------2---2----------|
  G|4-------4-------4---4-------4--|--------2-------2---2----------|
  D|-------------------------------|-------------------------------|
  A|-------------------------------|-------------------------------|
  E|-------------------------------|-------------------------------|


    F#                              B
  e|------- ------- ------- -------|------- ------- ------- -------|
  B|2---2---2-------2---2---2---2--|4------------------------------|
  G|3---3---3-------3---3---3---3--|4-------4-------7---9----------|
  D|4---4---4-------4---4---4---4--|4---------------------------9--|
  A|-------------------------------|--------2-------5---7-------7--|
  E|-------------------------------|-------------------------------|
                                                            When
                                                                you're

    01:13                                                            

  e|------- ------- ------- -------|2---2-- ----2-- 2---2-- -------|
  B|--------3-----------3----------|4---4-------4---4---4-------3--|
  G|--------1-----------1----------|4---4-------4---4---4-------1--|
  D|--------2-----------2----------|----------------------------2--|
  A|-------------------------------|-------------------------------|
  E|-------------------------------|-------------------------------|
    by      my      side    you're  only        one         Don't
                                the                             you


  e|------- ------- ------- -------|------- ------- ------- -------|
  B|--------3-----------3----------|3-----------3---3---3---3------|
  G|--------1-----------1----------|1-----------1---1---1---1------|
  D|--------2-----------2----------|2-----------2---2---2---2------|
  A|-------------------------------|-------------------------------|
  E|-------------------------------|-------------------------------|
    run     and     hide    just    on      come                come
                                come            on          So 


  e|------- ------- ------- -------|------- 5------ ----5-- -------|
  B|--------2---2-------5-------5--|--------4-----------4----------|
  G|--------3---3-------3-------3--|--------4-----------4----------|
  D|--------4---4-------4-------4--|-------------------------------|
  A|-------------------------------|-------------------------------|
  E|-------------------------------|-------------------------------|
    on      come                come                        Little
                on                  on                          child

    01:22                                                            

  e|----4-- 4------ ----4-- ----4--|----4-- 4---4-- 2---4-- -------|
  B|----5---5-----------5-------5--|----5---5---5---3---5----------|
  G|----4---4-----------4-------4--|----4---4---4---2---4----------|
  D|-------------------------------|-------------------------------|
  A|-------------------------------|-------------------------------|
  E|-------------------------------|-------------------------------|
                            little                          little
                                child                           child
  

  e|4---4-- 4------ ------- 5------|------- 7------ 5---7-- -------| 
  B|5---5---5---------------5------|--------9-------7---9----------|
  G|4---4---4---------------6------|--------9-------7---0----------|
  D|-------------------------------|-------------------------------|
  A|-------------------------------|-------------------------------|
  E|-------------------------------|-------------------------------|
            won't   dance   with                                I'm
                you             me


  e|------- 2------ 2---2-- 2------|------- 0---0-- ----0-- 0---0--| 
  B|--------4-------4---4---4------|--------2---2-------2---2---2--|
  G|--------4-------4---4---4------|--------2---2-------2---2---2--|
  D|-------------------------------|-------------------------------|
  A|-------------------------------|-------------------------------|
  E|-------------------------------|-------------------------------|
            so      sad     and     lonely
 


  e|------- ------- ------- -------|------- ------- ------- -------| 
  B|----5---5---5-------4---4---4--|----3---3---3---5---5---5------|
  G|----3---3---3-------2---2---2--|----4---4---4---6---6---6------|
  D|----4---4---4-------4---4---4--|----6---6---6---6---6---6------|
  A|-------------------------------|-------------------------------|
  E|-------------------------------|-------------------------------|
    Baby    take    chance  with        Oh      yeah                    
                a               me 

    01:35

  e|------- ------- ------- -------|------- ------- ------- -------|
  B|----5---5-------4-------4---4--|----5---5---5---5-------5------|
  G|----3---3-------2-------2---2--|----4---4---4---6-------6------|
  D|----4---4-------4-------4---4--|----6---6---6---6-------6------|
  A|-------------------------------|-------------------------------|
  E|-------------------------------|-------------------------------|
    Baby    take    chance  with        Oh      yeah                    
                a               me 


  e|------- ------- ------- -------|------- ------- ------- -------|
  B|----5---5---5-----------4---4--|5---5---5---5---5-------5------|
  G|----3---3---3-----------2---2--|4---4---4---4---6-------6------|
  D|----4---4---4-----------4---4--|6---6---6---6---6-------6------|
  A|-------------------------------|-------------------------------|
  E|-------------------------------|-------------------------------|
    Baby    take    chance  with        Oh      yeah                    
                a               me 
    ........................... Fade out ..........................


  e|------- ------- ------- -------|------- ------- ------- -------|
  B|----5---5---5---4-------4---4--|-------------------------------|
  G|----3---3---3---2-------2---2--|-------------------------------|
  D|----4---4---4---4-------4---4--|-------------------------------|
  A|-------------------------------|-------------------------------|
  E|-------------------------------|-------------------------------|

    ...............................
  





        B  Bend
        R  Release
        /  Slide up
        \  Slide down
        H  Hammer-on
        P  Pull-off
        ~  Vibrato
        +  Harmonic
        x  Mute note
        .  Play note like a dot in standard notation
        ^  Ties two notes together
        (. Pause



comments
We did not receive enough feedback on this tab! Please rate:
print report bad tab
1 2 3 4 5
I want to post or [tab]
guest
You may want to rate the tab now too:
select rating
Please do not post tabs as comments. Select "correction" instead!