Oops, an error
Loading. Please wait.

Long Long Long Tab

version 2
version 2

Whole song

Interactive

5,001 views 3 this week
2 commentsread comments
1 2 3 4 5
excellent!
x 4
add to favorites
launch autoscroll
font size
0
reset
how to read this tab
guitar tuner
Tab Pro tools
  • play this tab
  • loop segment
  • change instrument
  • show fretboard
  • metronome
×
Best way to learn
"Long Long Long"
Autoscroll
slow
fast
+/-
esc
set tempo
stop
Contributor
------------------------------------------------------------------
  THE BEATLES - LONG, LONG, LONG (Lennon/McCartney) From the WHITE 
                ALBUM. Released on 22nd November 1968.
------------------------------------------------------------------

  Tabbed by:PJVillanueva





It's been a long long long time,
How could I ever have lost you
When I loved you.

It took a long long long time
Now I'm so happy I found you
How I love you

So many tears I was searching,
So many tears I was wasting, oh. Oh--

Now I can see you, be you
How can I ever misplace you
How I want you
Oh I love you
You know that I need you.
Ooh I love you.







Use a capo on third fret.


       


                              
e|--------- --------- ---------|--------- --------- ---------|
B|-----------------------------|-----------------------------|
G|-----------------------------|-----------------------------|
D|--------------------0--H--2--|--------------------2--------|
A|----------0--H--2------------|----------0------------------|
E|0--H--3----------------------|3----------------------------|




e|--------- --------- ---------|--------- --------- ---------|
B|-----------------------------|--------------------3--------|
G|-----------------------------|----------2---------2--------|
D|--------------------0--H--2--|0----------------------------|
A|----------0--H--2------------|-----------------------------|
E|0--H--3----------------------|-----------------------------|

e|7-------- 5-------- ---------|5-------- --------- ---------|
B|--------------------8--------|----------7------------------|
G|-----------------------------|--------------------7--------|
D|-----------------------------|-----------------------------|
A|-----------------------------|-----------------------------|
E|-----------------------------|-----------------------------|




  A
e|0-----0-- ------0-- 0--------|0-------- 0-------- 0--------|
B|2-----2---------2---2--------|2---------2---------2--------|
G|2-----2---------2---2--------|2---------2---------2--------|
D|2-----2---------2---2--------|2---------2---------2--------|
A|0-----0---------0---0--------|0---------0---------0--------|
E|-----------------------------|-----------------------------|
                                It's      been      a     long
e|--------- --------- ---------|--------- --------- ---------|
B|5----------------------------|-----------------------------|
G|-----------------------------|-----------------------------|
D|-----------------------------|-----------------------------|
A|-----------------------------|-----------------------------|
E|-----------------------------|-----------------------------|




  G                             F#m
e|3-------- 3-------- 3--------|2-------- 2-------- 2--------|
B|0---------0---------0--------|2---------2---------2--------|
G|0---------0---------0--------|2---------2---------2--------|
D|0---------0---------0--------|4---------4---------4--------|
A|2---------2---------2--------|4---------4---------4--------|
E|3---------3---------3--------|2---------2---------2--------|
                                long
e|7-------- --------- ---------|5-------- --------- ---------|
B|8----------------------------|7----------------------------|
G|-----------------------------|-----------------------------|
D|-----------------------------|-----------------------------|
A|-----------------------------|-----------------------------|
E|-----------------------------|-----------------------------|




  Em                            D
e|0-------- 0-------- 0--------|2-------- 2-------- 2--------|
B|0---------0---------0--------|3---------3---------3--------|
G|0---------0---------0--------|2---------2---------2--------|
D|2---------2---------2--------|0---------0---------0--------|
A|2---------2---------2--------|-----------------------------|
E|0---------0---------0--------|-----------------------------|
                      long      time
e|3-------- --------- ---------|5-------- --------- ---------|
B|5----------------------------|7----------------------------|
G|-----------------------------|-----------------------------|
D|-----------------------------|-----------------------------|
A|-----------------------------|-----------------------------|
E|-----------------------------|-----------------------------|



  G                             D
e|--------- --------- ---------|--------- --------- 2--------|
B|-----------------------------|--------------------3--------|
G|-----------------------------|----------2---------2--------|
D|--------------------0--H--2--|0----------------------------|
A|----------0--H--2------------|-----------------------------|
E|0--H--3----------------------|-----------------------------|

e|7-------- --------- ---------|5-------- --------- ---------|
B|8----------------------------|7----------------------------|
G|-----------------------------|-----------------------------|
D|-----------------------------|-----------------------------|
A|-----------------------------|-----------------------------|
E|-----------------------------|-----------------------------|




  A
e|0-------- 0-------- 0--------|0-------- 0-------- 0--------|
B|2---------2---------2--------|2---------2---------2--------|
G|2---------2---------2--------|2---------2---------2--------|
D|2---------2---------2--------|2---------2---------2--------|
A|0---------0---------0--------|0---------0---------0--------|
E|-----------------------------|-----------------------------|
  How       could I          ever                   have 
e|5-------- --------- ---------|--------- --------- ---------|
B|5----------------------------|-----------------------------|
G|-----------------------------|-----------------------------|
D|-----------------------------|-----------------------------|
A|-----------------------------|-----------------------------|
E|-----------------------------|-----------------------------|




  Em
e|0-------- 0-------- 0--------|0-------- 0-------- 0--------|
B|0---------0---------0--------|0---------0---------0--------|
G|0---------0---------0--------|0---------0---------0--------|
D|2---------2---------2--------|2---------2---------2--------|
A|2---------2---------2--------|2---------2---------2--------|
E|0---------0---------0--------|0---------0---------0--------|
  lost                          you
e|3-------- --------- ---------|--------- --------- 3--------|
B|5----------------------------|-----------------------------|
G|-----------------------------|-----------------------------|
D|-----------------------------|-----------------------------|
A|-----------------------------|-----------------------------|
E|-----------------------------|-----------------------------|




  D                             A
e|2-----2-- --------- 2-----2--|0-------- 0-------- 0--------|
B|3-----3-------------3-----3--|2---------2---------2--------|
G|2-----2-------------2-----2--|2---------2---------2--------|
D|0-----0-------------0-----0--|2---------2---------2--------|
A|-----------------------------|0---------0---------0--------|
E|-----------------------------|-----------------------------|

e|2-------- --------- ---------|--------- --------- ---------|
B|----------5---------3--------|2---------3---------5--------|
G|-----------------------------|-----------------------------|
D|-----------------------------|-----------------------------|
A|-----------------------------|-----------------------------|
E|-----------------------------|-----------------------------|




  Em
e|0-------- --------- ---------|--------- --------- 0--------|
B|0----------------------------|--------------------0--------|
G|0----------------------------|--------------------0--------|
D|2----------------------------|--------------------2--------|
A|2----------------------------|--------------------2--------|
E|0----------------------------|--------------------0--------|
                      when      I
e|--------- --------- ---------|--------- --------- ---------|
B|5----------------------------|-----------------------------|
G|-----------------------------|-----------------------------|
D|-----------------------------|-----------------------------|
A|-----------------------------|-----------------------------|
E|-----------------------------|-----------------------------|




  D                             A
e|2-------- 2-------- 2--------|0-------- 0-------- 0--------|
B|3---------3---------3--------|2---------2---------2--------|
G|2---------2---------2--------|2---------2---------2--------|
D|0---------0---------0--------|2---------2---------2--------|
A|-----------------------------|0---------0---------0--------|
E|-----------------------------|-----------------------------|
            loved               you
e|5-------- --------- ---------|5-------- --------- ---------|
B|7----------------------------|5----------------------------|
G|-----------------------------|-----------------------------|
D|-----------------------------|-----------------------------|
A|-----------------------------|-----------------------------|
E|-----------------------------|-----------------------------|





e|0-------- 0-------- 0--------|0-----0-- ------0-- 0--------|
B|2---------2---------2--------|2-----2---------2---2--------|
G|2---------2---------2--------|2-----2---------2---2--------|
D|2---------2---------2--------|2-----2---------2---2--------|
A|0---------0---------0--------|0-----0---------0---0--------|
E|-----------------------------|-----------------------------|
                                It        took  a
e|5-------- 5-------- 5--------|5-------- --------- ---------|
B|5---------7---------8--------|8----------------------------|
G|6---------7---------9--------|9----------------------------|
D|-----------------------------|-----------------------------|
A|-----------------------------|-----------------------------|
E|-----------------------------|-----------------------------|




  G                             F#m
e|3-------- 3-------- 3--------|2-------- 2-------- 2--------|
B|0---------0---------0--------|2---------2---------2--------|
G|0---------0---------0--------|2---------2---------2--------|
D|0---------0---------0--------|4---------4---------4--------|
A|2---------2---------2--------|4---------4---------4--------|
E|3---------3---------3--------|2---------2---------2--------|
  long                          long
e|7-------- --------- ---------|5-------- --------- ---------|
B|8----------------------------|7----------------------------|
G|-----------------------------|-----------------------------|
D|-----------------------------|-----------------------------|
A|-----------------------------|-----------------------------|
E|-----------------------------|-----------------------------|




  Em                            D
e|0-------- 0-------- 0--------|2-------- 2-------- 2--------|
B|0---------0---------0--------|3---------3---------3--------|
G|0---------0---------0--------|2---------2---------2--------|
D|2---------2---------2--------|0---------0---------0--------|
A|2---------2---------2--------|-----------------------------|
E|0---------0---------0--------|-----------------------------|
  long                       time
e|5-------- --------- ---------|5-------- --------- ---------|
B|8----------------------------|7----------------------------|
G|9----------------------------|7----------------------------|
D|-----------------------------|-----------------------------|
A|-----------------------------|-----------------------------|
E|-----------------------------|-----------------------------| 




  G                             D
e|3-------- 3-------- 3--------|2-------- 2-------- 2--------|
B|0---------0---------0--------|3---------3---------3--------|
G|0---------0---------0--------|2---------2---------2--------|
D|0---------0---------0--------|0---------0---------0--------|
A|2---------2---------2--------|-----------------------------|
E|3---------3---------3--------|-----------------------------|

e|--------- --------- ---------|--------- --------- ---------|
B|-----------------------------|-----------------------------|
G|-----------------------------|-----------------------------|
D|--------------------3-----5--|3----------------------------|
A|----------3-----5------------|-----------------------------|
E|3-----6----------------------|-----------------------------|

e|7-------- --------- ---------|5-------- --------- ---------|
B|8----------------------------|7----------------------------|
G|-----------------------------|-----------------------------|
D|-----------------------------|-----------------------------|
A|-----------------------------|-----------------------------|
E|-----------------------------|-----------------------------|




  A
e|0-------- 0-------- 0--------|0-------- 0-------- 0--------|
B|2---------2---------2--------|2---------2---------2--------|
G|2---------2---------2--------|2---------2---------2--------|
D|2---------2---------2--------|2---------2---------2--------|
A|0---------0---------0--------|0---------0---------0--------|
E|-----------------------------|-----------------------------|
  Now   I'm       so        happy                         I
e|5-------- 5-------- 5--------|5-------- 5-------- 5--------|
B|5---------7---------8--------|8---------7---------5--------|
G|6---------7---------9--------|9---------7---------6--------|
D|-----------------------------|-----------------------------|
A|-----------------------------|-----------------------------|
E|-----------------------------|-----------------------------|





  Em
e|0-------- 0-------- 0--------|0-------- 0-------- 0--------|
B|0---------0---------0--------|0---------0---------0--------|
G|0---------0---------0--------|0---------0---------0--------|
D|2---------2---------2--------|2---------2---------2--------|
A|2---------2---------2--------|2---------2---------2--------|
E|0---------0---------0--------|0---------0---------0--------|
  found                         you
e|--------- --------- ---------|--------- 7-------- ---------|
B|-----------------------------|8----------------------------|
G|--------------------9--------|-----------------------------|
D|----------9------------------|-----------------------------|
A|-----------------------------|-----------------------------|
E|-----------------------------|-----------------------------|




  D                             A
e|2-------- 2-----3-- ---------|0-------- 0-------- 0--------|
B|3---------3-----3------------|2---------2---------2--------|
G|2---------2-----2------------|2---------2---------2--------|
D|0---------0-----0------------|2---------2---------2--------|
A|-----------------------------|0---------0---------0--------|
E|-----------------------------|-----------------------------|

e|5-------- --------- ---------|5-------- --------- ---------|
B|7----------------------------|5----------------------------|
G|-----------------------------|6----------------------------|
D|-----------------------------|-----------------------------|
A|-----------------------------|-----------------------------|
E|-----------------------------|-----------------------------|




  Em
e|0-------- 0-------- 0--------|0-------- 0-------- 0--------|
B|0---------0---------0--------|0---------0---------0--------|
G|0---------0---------0--------|0---------0---------0--------|
D|2---------2---------2--------|2---------2---------2--------|
A|2---------2---------2--------|2---------2---------2--------|
E|0---------0---------0--------|0---------0---------0--------|
                  How           I
e|3-------- --------- ---------|--------- --------- ---------|
B|5----------------------------|--------------------5--------|
G|4----------------------------|-----------------------------|
D|-----------------------------|-----------------------------|
A|-----------------------------|-----------------------------|
E|-----------------------------|-----------------------------|





  D                             A
e|2-------- 2-------- 2--------|0-------- 0-------- 0--------|
B|3---------3---------3--------|2---------2---------2--------|
G|2---------2---------2--------|2---------2---------2--------|
D|0---------0---------0--------|2---------2---------2--------|
A|-----------------------------|0---------0---------0--------|
E|-----------------------------|-----------------------------|
  love                          you
e|3-------- --------- ---------|--------- --------- ---------|
B|----------5---------3--------|2---------3---------5--------|
G|-----------------------------|-----------------------------|
D|-----------------------------|-----------------------------|
A|-----------------------------|-----------------------------|
E|-----------------------------|-----------------------------|





e|0-------- 0-------- 0-----0--|0-----0-- ------0-- 0-----0--|
B|2---------2---------2-----2--|2-----2---------2---2-----2--|
G|2---------2---------2-----2--|2-----2---------2---2-----2--|
D|2---------2---------2-----2--|2-----2---------2---2-----2--|
A|0---------0---------0-----0--|0-----0---------0---0-----0--|
E|-----------------------------|-----------------------------|

e|--------- --------- ---------|--------- --------- ---------|
B|5----------------------------|-----------------------------|
G|2----------------------------|-----------------------------|
D|-----------------------------|-----------------------------|
A|-----------------------------|-----------------------------|
E|-----------------------------|-----------------------------|




e|0-----0-- ------0-- 0--------|
B|2-----2---------2---2--------|
G|2-----2---------2---2--------|
D|2-----2---------2---2--------|
A|0-----0---------0---0--------|
E|-----------------------------|

e|--------- --------- ---------|
B|-----------------------------|
G|-----------------------------|
D|-----------------------------|
A|-----------------------------|
E|-----------------------------|





  G                             D
e|3-------- 3-------- 3--------|2-------- 2-------- 2--------|
B|0---------0---------0--------|3---------3---------3--------|
G|0---------0---------0--------|2---------2---------2--------|
D|0---------0---------0--------|0---------0---------0--------|
A|2---------2---------2--------|-----------------------------|
E|3---------3---------3--------|-----------------------------|
  So     many     tears             I     was           searching,
e|7-------- --------- ---------|5-------- --------- ---------|
B|8----------------------------|7----------------------------|
G|-----------------------------|-----------------------------|
D|-----------------------------|-----------------------------|
A|-----------------------------|-----------------------------|
E|-----------------------------|-----------------------------|

e|--------- --------- ---------|--------- 2-------- 2--------|
B|0---------0---------0--------|----------3---------3--------|
G|0---------0---------0--------|----------2---------2--------|
D|0---------0---------0--------|0-------------------------0--|
A|-----------------------------|-----------------------------|
E|3-------------------------3--|-----------------------------|





  A                             Em
e|0-------- 0-------- 0-----0--|0-------- 0-------- 0--------|
B|2---------2---------2-----2--|0---------0---------0--------|
G|2---------2---------2-----2--|0---------0---------0--------|
D|2---------2---------2-----2--|2---------2---------2--------|
A|0---------0---------0-----0--|2---------2---------2--------|
E|-----------------------------|0---------0---------0--------|

e|--------- --------- ---------|3-------- --------- ---------|
B|5----------------------------|5----------------------------|
G|6----------------------------|-----------------------------|
D|-----------------------------|-----------------------------|
A|-----------------------------|-----------------------------|
E|-----------------------------|-----------------------------|

e|--------- --------- ---------|--------- --------- ---------|
B|----------2---------2--------|----------0---------0--------|
G|----------2---------2--------|----------0---------0--------|
D|----------2---------2--------|----------2---------2--------|
A|0-------------------------0--|--------------------------2--|
E|-----------------------------|0----------------------------|





e|------0-- ------0-- 0-----0--|0-----0-- 0-----0-- 0-----0--|
B|------0---------0---0-----0--|0-----0---0-----0---0-----0--|
G|------0---------0---0-----0--|0-----0---0-----0---0-----0--|
D|------2---------2---2-----2--|2-----2---2-----2---2-----2--|
A|------2---------2---2-----2--|2-----2---2-----2---2-----2--|
E|------0---------0---0-----0--|0-----0---0-----0---0-----0--|

e|--------- --------- ---------|--------- --------- ---------|
B|-----------------------------|-----------------------------|
G|-----------------------------|-----------------------------|
D|-----------------------------|-----------------------------|
A|-----------------------------|-----------------------------|
E|-----------------------------|-----------------------------|

e|--------- --------- ---------|--------- --------- ---------|
B|-----------------------------|-----------------------------|
G|0-----2-3/4---------2--------|0-----2-3/4---------2-----0--|
D|2-----2-2-----------2--------|2-----2-2/----------2-----2--|
A|-----------------------------|-----------------------------|
E|0----------------------------|0----------------------------|





  G                             D
e|3-------- 3-------- 3--------|2-------- 2-------- 2--------|
B|0---------0---------0--------|3---------3---------3--------|
G|0---------0---------0--------|2---------2---------2--------|
D|0---------0---------0--------|0---------0---------0--------|
A|2---------2---------2--------|-----------------------------|
E|3---------3---------3--------|-----------------------------|
                  So  many      tears      I        was 
e|7-------- --------- ---------|5-------- --------- ---------|
B|8----------------------------|7----------------------------|
G|-----------------------------|-----------------------------|
D|-----------------------------|-----------------------------|
A|-----------------------------|-----------------------------|
E|-----------------------------|-----------------------------|

e|--------- --------- ---------|--------- 2-------- 2--------|
B|----------0---------0--------|----------3---------3--------|
G|----------0---------0--------|----------2---------2--------|
D|----------0---------0--------|0-------------------------0--|
A|-----------------------------|-----------------------------|
E|3-------------------------3--|-----------------------------|




  A                             Em
e|0-------- 0-------- 0--------|0-------- 0-------- 0--------|
B|2---------2---------2--------|0---------0---------0--------|
G|2---------2---------2--------|0---------0---------0--------|
D|2---------2---------2--------|2---------2---------2--------|
A|0---------0---------0--------|2---------2---------2--------|
E|-----------------------------|0---------0---------0--------|
  wasting, 
e|5-------- --------- ---------|3-------- --------- ---------|
B|5----------------------------|5----------------------------|
G|6----------------------------|4----------------------------|
D|-----------------------------|-----------------------------|
A|-----------------------------|-----------------------------|
E|-----------------------------|-----------------------------|

e|--------- --------- ---------|--------- --------- ---------|
B|----------2---------2--------|----------0---------0--------|
G|----------2---------2--------|----------0---------0--------|
D|----------2---------2--------|----------2---------2--------|
A|0-------------------------0--|--------------------------2--|
E|-----------------------------|0----------------------------|




  G                             A
e|3-------- 3-----3-- ------3--|0-------- 0-------- 0--------|
B|0---------0-----0---------0--|2---------2---------2--------|
G|0---------0-----0---------0--|2---------2---------2--------|
D|0---------0-----0---------0--|2---------2---------2--------|
A|2---------2-----2---------2--|0---------0---------0--------|
E|3---------3-----3---------3--|-----------------------------|
  Oh,                       oh       
e|3-------- --------- ---------|--------- --------- ---------|
B|3----------------------------|5----------------------------|
G|4----------------------------|6----------------------------|
D|-----------------------------|7----------------------------|
A|-----------------------------|-----------------------------|
E|-----------------------------|-----------------------------|

e|--------- --------- ---------|--------- --------- ---------|
B|-----------------------------|2---------2---------2--------|
G|0-----2-3/4---------2-----0--|2---------2---------2--------|
D|2-----2-2-----------2-----2--|2---------2---------2--------|
A|-----------------------------|0----------------------------|
E|0----------------------------|--------------------------0--|






e|0-------- --------- ---------|--------- --------- ---------|
B|2----------------------------|-----------------------------|
G|2----------------------------|-----------------------------|
D|2----------------------------|-----------------------------|
A|0----------------------------|-----------------------------|
E|-----------------------------|-----------------------------|
                                Now       I     can
e|5-------- --------- ---------|--------- --------- ---------|
B|5----------------------------|-----------------------------|
G|6----------------------------|-----------------------------|
D|-----------------------------|-----------------------------|
A|-----------------------------|-----------------------------|
E|-----------------------------|-----------------------------|

e|--------- --------- ---------|--------- --------- ---------|
B|2----------------------------|-----------------------------|
G|2----------------------------|-----------------------------|
D|2----------------------------|-----------------------------|
A|0----------------------------|-----------------------------|
E|-----------------------------|-----------------------------|




  G                             F#m
e|3-------- 3-------- 3--------|2-------- 2-------- 2--------|
B|0---------0---------0--------|2---------2---------2--------|
G|0---------0---------0--------|2---------2---------2--------|
D|0---------0---------0--------|4---------4---------4--------|
A|2---------2---------2--------|4---------4---------4--------|
E|3---------3---------3--------|2---------2---------2--------|
  see                           you
e|7-------- --------- ---------|5-------- --------- ---------|
B|8----------------------------|7----------------------------|
G|-----------------------------|-----------------------------|
D|-----------------------------|-----------------------------|
A|-----------------------------|-----------------------------|
E|-----------------------------|-----------------------------|




  Em                            D
e|0-------- 0-------- 0--------|2-------- 2-------- 2--------|
B|0---------0---------0--------|3---------3---------3--------|
G|0---------0---------0--------|2---------2---------2--------|
D|2---------2---------2--------|0---------0---------0--------|
A|2---------2---------2--------|-----------------------------|
E|0---------0---------0--------|-----------------------------|
            Be                  you
e|3-------- --------- ---------|2-------- --------- ---------|
B|5----------------------------|3----------------------------|
G|-----------------------------|-----------------------------|
D|-----------------------------|-----------------------------|
A|-----------------------------|-----------------------------|
E|-----------------------------|-----------------------------|


  G                             D
e|3-------- 3-------- 3--------|2-------- 2-------- 2--------|
B|0---------0---------0--------|3---------3---------3--------|
G|0---------0---------0--------|2---------2---------2--------|
D|0---------0---------0--------|0---------0---------0--------|
A|2---------2---------2--------|-----------------------------|
E|3---------3---------3--------|-----------------------------|

e|--------- --------- ---------|--------- --------- ---------|
B|-----------------------------|-----------------------------|
G|-----------------------------|-----------------------------|
D|--------------------0--H--2--|0----------------------------|
A|----------0--H--2------------|-----------------------------|
E|0--H--3----------------------|-----------------------------|

e|7-------- --------- ---------|5-------- --------- ---------|
B|8----------------------------|7----------------------------|
G|-----------------------------|-----------------------------|
D|-----------------------------|-----------------------------|
A|-----------------------------|-----------------------------|
E|-----------------------------|-----------------------------|




  A
e|0-------- 0-------- 0--------|0-------- 0-------- 0--------|
B|2---------2---------2--------|2---------2---------2--------|
G|2---------2---------2--------|2---------2---------2--------|
D|2---------2---------2--------|2---------2---------2--------|
A|0---------0---------0--------|0---------0---------0--------|
E|-----------------------------|-----------------------------|
  How       can   I             ever                     misplace
e|5-------- --------- ---------|--------- --------- ---------|
B|5----------------------------|-----------------------------|
G|6----------------------------|-----------------------------|
D|-----------------------------|-----------------------------|
A|-----------------------------|-----------------------------|
E|-----------------------------|-----------------------------|




  Em
e|0-------- --------- 0--------|0-------- 0-------- 0--------|
B|0-------------------0--------|0---------0---------0--------|
G|0-------------------0--------|0---------0---------0--------|
D|2-------------------2--------|2---------2---------2--------|
A|2-------------------2--------|2---------2---------2--------|
E|0-------------------0--------|0---------0---------0--------|
                  you
e|3-------- --------- ---------|--------- --------- ---------|
B|5----------------------------|-----------------------------|
G|4----------------------------|-----------------------------|
D|-----------------------------|-----------------------------|
A|-----------------------------|-----------------------------|
E|-----------------------------|-----------------------------|




  D                             A
e|2-----2-- ------2-- 2-----2--|0-------- 0-------- 0--------|
B|3-----3---------3---3-----3--|2---------2---------2--------|
G|2-----2---------2---2-----2--|2---------2---------2--------|
D|0-----0---------0---0-----0--|2---------2---------2--------|
A|-----------------------------|0---------0---------0--------|
E|-----------------------------|-----------------------------|

e|2-------- --------- ---------|--------- --------- ---------|
B|3---------5---------3--------|2---------3---------5--------|
G|----------6---------4--------|2---------4---------6--------|
D|-----------------------------|-----------------------------|
A|-----------------------------|-----------------------------|
E|-----------------------------|-----------------------------|




  Em
e|0-------- 0-------- 0--------|0-------- 0-------- 0--------|
B|0---------0---------0--------|0---------0---------0--------|
G|0---------0---------0--------|0---------0---------0--------|
D|2---------2---------2--------|2---------2---------2--------|
A|2---------2---------2--------|2---------2---------2--------|
E|0---------0---------0--------|0---------0---------0--------|
                  How           I 
e|3-------- --------- ---------|--------- --------- ---------|
B|5----------------------------|-----------------------------|
G|4----------------------------|-----------------------------|
D|-----------------------------|-----------------------------|
A|-----------------------------|-----------------------------|
E|-----------------------------|-----------------------------|




  D                             A
e|2-------- 2-------- 2--------|0-------- 0-------- 0--------|
B|6---------6---------6--------|2---------2---------2--------|
G|2---------2---------2--------|2---------2---------2--------|
D|0---------0---------0--------|2---------2---------2--------|
A|-----------------------------|0---------0---------0--------|
E|-----------------------------|-----------------------------|
  want                          you
e|2-------- --------- ---------|--------- --------- ---------|
B|3---------5---------3--------|2---------3---------5--------|
G|----------6---------4--------|2---------4---------6--------|
D|-----------------------------|-----------------------------|
A|-----------------------------|-----------------------------|
E|-----------------------------|-----------------------------|




  Em                                
e|0-------- 0-------- 0--------|0-------- 0-------- 0--------|
B|0---------0---------0--------|0---------0---------0--------|
G|0---------0---------0--------|0---------0---------0--------|
D|2---------2---------2--------|2---------2---------2--------|
A|2---------2---------2--------|2---------2---------2--------|
E|0---------0---------0--------|0---------0---------0--------|
                  Oh        I     
e|3-------- --------- ---------|--------- --------- ---------|
B|5----------------------------|-----------------------------|
G|4----------------------------|-----------------------------|
D|-----------------------------|-----------------------------|
A|-----------------------------|-----------------------------|
E|-----------------------------|-----------------------------|




  D                             A
e|2-------- 2------- 2---------|0-------- 0-------- 0-----0--|
B|3---------3--------3---------|2---------2---------2-----2--|
G|2---------2--------2---------|2---------2---------2-----2--|
D|0---------0--------0---------|2---------2---------2-----2--|
A|-----------------------------|0---------0---------0-----0--|
E|-----------------------------|-----------------------------|
   love                         you
e|2-------- --------- ---------|--------- --------- ---------|
B|3---------5---------3--------|2---------3---------5--------|
G|----------6---------4--------|2---------4---------6--------|
D|-----------------------------|-----------------------------|
A|-----------------------------|-----------------------------|
E|-----------------------------|-----------------------------|




  Em       
e|0-------- 0-------- 0-----0--|0-------- 0-------- 0--------|
B|0---------0---------0-----0--|0---------0---------0--------|
G|0---------0---------0-----0--|0---------0---------0--------|
D|2---------2---------2-----2--|2---------2---------2--------|
A|2---------2---------2-----2--|2---------2---------2--------|
E|0---------0---------0-----0--|0---------0---------0--------|
                      You       know      that      I
e|3-------- --------- ---------|--------- --------- ---------|
B|5----------------------------|-----------------------------|
G|4----------------------------|-----------------------------|
D|-----------------------------|-----------------------------|
A|-----------------------------|-----------------------------|
E|-----------------------------|-----------------------------|




  D                             A
e|2-------- 2-------- 2-----2--|0-------- 0-------- 0--------|
B|3---------3---------3-----3--|2---------2---------2--------|
G|2---------2---------2-----2--|2---------2---------2--------|
D|0---------0---------0-----0--|2---------2---------2--------|
A|-----------------------------|0---------0---------0--------|
E|-----------------------------|-----------------------------|
   need     you.
e|2-------- --------- ---------|--------- --------- ---------|
B|3---------5---------3--------|2---------3---------5--------|
G|----------6---------4--------|2---------4---------6--------|
D|-----------------------------|-----------------------------|
A|-----------------------------|-----------------------------|
E|-----------------------------|-----------------------------|




  Em
e|0-------- 0-------- 0--------|0-------- 0-------- 0--------|
B|0---------0---------0--------|0---------0---------0--------|
G|0---------0---------0--------|0---------0---------0--------|
D|2---------2---------2--------|2---------2---------2--------|
A|2---------2---------2--------|2---------2---------2--------|
E|0---------0---------0--------|0---------0---------0--------|
  Ooh                           I 

e|3-------- --------- ---------|--------- --------- ---------|
B|5----------------------------|-----------------------------|
G|4----------------------------|-----------------------------|
D|-----------------------------|-----------------------------|
A|-----------------------------|-----------------------------|
E|-----------------------------|-----------------------------|  




  D                             A
e|2-------- 2-------- 2--------|0-------- 0-------- 0--------|
B|3---------3---------3--------|2---------2---------2--------|
G|2---------2---------2--------|2---------2---------2--------|
D|0---------0---------0--------|2---------2---------2--------|
A|-----------------------------|0---------0---------0--------|
E|-----------------------------|-----------------------------|
  love                          you. 
e|2-------- --------- ---------|--------- --------- ---------|
B|3---------5---------3--------|2----------------------------|
G|----------6---------4--------|2----------------------------|
D|-----------------------------|-----------------------------|
A|-----------------------------|-----------------------------|
E|-----------------------------|-----------------------------|


                               (.

e|0-----0-- ------0-- 0-----0--|0-------- --------- ---------|
B|2-----2---------2---2-----2--|2----------------------------|
G|2-----2---------2---2-----2--|2----------------------------|
D|2-----2---------2---2-----2--|2----------------------------|
A|0-----0---------0---0-----0--|0----------------------------|
E|-----------------------------|-----------------------------|
                     
e|--------- --------- ---------|--------- --------- ---------|
B|-----------------------------|-----------------------------|
G|2----------------------------|-----------------------------|
D|2----------------------------|-----------------------------|
A|-----------------------------|-----------------------------|
E|-----------------------------|-----------------------------|





e|-----------------------------------------------------------|
B|---------5------3------3-----------------------------------|
G|--------------------------5--------------------------------|
D|7----------------------------------------------------------|
A|-----------------------------------------------------------|
E|-----------------------------------------------------------|.......


  (.

e|0----------------------------------------------------------|
B|0----------------------------------------------------------|
G|0----------------------------------------------------------|
D|0----------------------------------------------------------|
A|0----------------------------------------------------------|
E|0----------------------------------------------------------|








  
        B  Bend
        R  Release
        /  slide up
        \  slide down
        H  hammer-on
        P  pull-off
        ~  vibrato
        +  harmonic
        x  Mute note
        . - play note like a dot in standard notation
        ^ - ties two notes together
        (.  Pause
comments
print report bad tab
2 comments total.
+1 reply
acolddayinhoth wrote on April 10 2009, 04:21 am

Great tab, better than the last one that asks you to hammer-on to 0. No idea how that's done. Thanks to your tab, I can almost get it.

0 reply
mrbiscuit wrote on August 10 2010, 05:43 pm

wonderfull song. thank you for your tab

I want to post or [tab]
guest
You may want to rate the tab now too:
select rating
Please do not post tabs as comments. Select "correction" instead!