Oops, an error
Loading. Please wait.

Long Tall Sally Bass Tab

version 1
version 1

Whole song

Interactive

5,417 views 9 this week
no commentswrite comment
1 2 3 4 5
excellent!
x 2
add to favorites
launch autoscroll
font size
0
reset
guitar tuner
Tab Pro tools
  • play this tab
  • loop segment
  • change instrument
  • show fretboard
  • metronome
Autoscroll
slow
fast
+/-
esc
set tempo
stop
Contributor
Long Tall Sally
The Beatles
Written by Little Richard; released on EP "Long Tall Sally"

A great rock and roll again!

Verse:
G|------ ------ ------ ------|------ ------ ------ ------|
D|---------------------------|---------------------------|
A|---------------------------|---------------------------|
E|---------------------------|---------------------------|
                                               I'm gonna


G|------ ------ ------ ------|------ ------ ------ ------|
D|5--------------------------|5--------------------------|
A|---------------------------|---------------------------|
E|3--------------------------|3--------------------------|
  tell   Aunt   Ma  -  ry  a- bout   Uncle  John,      he


G|------ ------ ------ ------|------ ------ ------ ------|
D|5--------------------------|5------3------2------------|
A|---------------------------|---------------------5-----|
E|3--------------------------|---------------------------|
  said   had been busy but he got a  lot of fun, oh,   ba-
      he        

G|------ ------ ------ ------|------ ------ ------ ------|
D|-------2------5------2---5-|-------2------5------2-----|
A|3--------------------------|3--------------------------|
E|---------------------------|---------------------------|
      by,                     yeah,             now,   ba-


G|------ ------ ------ ------|------ ------ ------ ------|
D|5--------------------2-----|5------5------3------2-----|
A|-------2------5------------|---------------------------|
E|---------------------------|---------------------------|
      by                      Oooh,                    ba-


G|------ ------ ------ ------|------ ------ ------ ------|
D|-------4------7------4-----|-------2------5------2-----|
A|5------------------------5-|3--------------------------|
E|---------------------------|---------------------------|
      by,                                some   fun tonight


G|------ ------ ------ ------|------ ------ ------ ------|
D|5--------------------------|0------1------2------4-----|
A|-------2------3------4-----|---------------------------|
E|---------------------------|---------------------------|
                                                       I

Verse:
G|------ ------ ------ ------|------ ------ ------ ------|
D|5--------------------------|5--------------------------|
A|---------------------------|---------------------------|
E|3--------------------------|3--------------------------|
  saw    Uncle  John     with Long   Tall   Sally,     he


G|------ ------ ------ ------|------ ------ ------ ------|
D|5--------------------------|5------3------2------------|
A|---------------------------|---------------------5-----|
E|3--------------------------|---------------------------|
  saw    Mary   coming and he ducked in the alley, oh, ba-
                                  back

G|------ ------ ------ ------|------ ------ ------ ------|
D|-------2------5------2---5-|-------2------5------2-----|
A|3--------------------------|3--------------------------|
E|---------------------------|---------------------------|
      by,                     yeah,             now,   ba-


G|------ ------ ------ ------|------ ------ ------ ------|
D|5--------------------2-----|5------5------3------2-----|
A|-------2------5------------|---------------------------|
E|---------------------------|---------------------------|
      by                      Oooh,                    ba-


G|------ ------ ------ ------|------ ------ ------ ------|
D|-------4------7------4-----|-------2------3------4-----|
A|5------------------------5-|3--------------------------|
E|---------------------------|---------------------------|
      by,                                some   fun tonight


G|------ ------ ------ ------|------ ------ ------ ------|
D|5--------------------------|0------1------2------4-----|
A|-------2------3------4-----|---------------------------|
E|---------------------------|---------------------------|


Break (solo):
G|------ ------ ------ ------|------ ------ ------ ------|
D|5------3------2------------|---------------------------|
A|---------------------5-----|-------2---2--5---5--2---2-|
E|---------------------------|3--------------------------|



G|------ ------ ------ ------|------ ------ ------ ------|
D|---------------------------|---------------------------|
A|-------2------5------2---2-|-------2------5------0---2-|
E|3-----------------3--------|3-----------------3--------|



G|------ ------ ------ ------|------ ------ ------ ------|
D|-------2------5------2---5-|-------2------5---5--5---5-|
A|3--------------------------|3--------------------------|
E|---------------------------|---------------------------|



G|------ ------ ------ ------|------ ------ ------ ------|
D|5--------------------------|------------------2--------|
A|-------2------5------2---5-|-------2------5------2-----|
E|---------------------------|3--------------------------|



G|------ ------ ------ ------|------ ------ ------ ------|
D|-------4------7------4-----|-------2------3------4-----|
A|5------------------------5-|3--------------------------|
E|---------------------------|---------------------------|



G|------ ------ ------ ------|------ ------ ------ ------|
D|5--------------------------|0------1------2------4-----|
A|-------2------3------4-----|---------------------------|
E|---------------------------|---------------------------|
                                         Well,

Verse:
G|------ ------ ------ ------|------ ------ ------ ------|
D|5--------------------------|5--------------------------|
A|---------------------------|---------------------------|
E|3--------------------------|3--------------------------|
  Long   Tall   Sally,  she's        pretty sweet, got
                                                she's

G|------ ------ ------ ------|------ ------ ------ ------|
D|5--------------------------|5------3------2------------|
A|---------------------------|---------------------5-----|
E|3--------------------------|---------------------------|
         everything   that Uncle     John   needs, oh, ba-


G|------ ------ ------ ------|------ ------ ------ ------|
D|-------2------5------2---5-|-------2------5------2-----|
A|3--------------------------|3--------------------------|
E|---------------------------|---------------------------|
      by,                     yeah,             now,   ba-


G|------ ------ ------ ------|------ ------ ------ ------|
D|5--------------------2-----|5------5------3------2-----|
A|-------2------5------------|---------------------------|
E|---------------------------|---------------------------|
      by                      Oooh,                    ba-


G|------ ------ ------ ------|------ ------ ------ ------|
D|-------4------7------4-----|-------2------3------4-----|
A|5------------------------5-|3--------------------------|
E|---------------------------|---------------------------|
      by,                                some   fun tonight


G|------ ------ ------ ------|------ ------ ------ ------|
D|5--------------------------|0------1------2------4-----|
A|-------2------3------4-----|---------------------------|
E|---------------------------|---------------------------|


Break (solo):
G|------ ------ ------ ------|------ ------ ------ ------|
D|5------5---5--5------5---5-|5------5------5---5------3-|
A|---------------------------|---------------------5-----|
E|---------------------------|---------------------------|



G|------ ------ ------ ------|------ ------ ------ ------|
D|5---5--5---5--5---5--5---5-|5---5--5---5--5---3--2-----|
A|---------------------------|-------------------------5-|
E|---------------------------|---------------------------|



G|------ ------ ------ ------|------ ------ ------ ------|
D|-------2------3------4-----|5------3------2------------|
A|3--------------------------|---------------------2---2-|
E|---------------------------|------------------3--------|



G|------ ------ ------ ------|------ ------ ------ ------|
D|5------3------2----------2-|---------------------------|
A|---------------------5-----|-------2------5------2---2-|
E|---------------------------|3-----------------3--------|



G|------ ------ ------ ------|------ ------ ------ ------|
D|-------4------7------4-----|-------2------3------4-----|
A|5------------------------5-|3--------------------------|
E|---------------------------|---------------------------|



G|------ ------ ------ ------|------ ------ ------ ------|
D|5--------------------------|0------1------2------4-----|
A|-------2------2------3-----|---------------------------|
E|---------------------------|---------------------------|
                              Well,          we're gonna

Refrain:
G|------ ------ ------ ------|------ ------ ------ ------|
D|5--------------------2-----|5------2-------------------|
A|-------2------5------------|--------------5------2-----|
E|---------------------------|---------------------------|
  have   some   fun    tonight,                        have


G|------ ------ ------ ------|------ ------ ------ ------|
D|---------------------2-----|5------3------2------------|
A|-------2------5------------|---------------------5-----|
E|3--------------------------|---------------------------|
      some   fun       tonight,                        Eve-


G|------ ------ ------ ------|------ ------ ------ ------|
D|-------2------3------4-----|5------3------2------------|
A|3--------------------------|---------------------5-----|
E|---------------------------|---------------------------|
      ry  -  thing's all   right,                      have


G|------ ------ ------ ------|------ ------ ------ ------|
D|---------------------2-----|5------2-------------------|
A|-------2------5------------|--------------5------2-----|
E|3--------------------------|---------------------------|
      some   fun       tonight                         Have


G|------ ------ ------ ------|------ ------ ------ ------|
D|-------4------7------4-----|-------2------3------4-----|
A|5--------------------------|3--------------------------|
E|---------------------------|---------------------------|
      some   fun,                        yeah,         yeah,


G|------ ------ ------ ------|------ ------ ------ ------|
D|5--------------------------|---------------------------|
A|-------2------3------4-----|5------5------5------5-----|
E|---------------------------|---------------------------|
             yeah,         yeah!             We're gonna

Refrain:
G|------ ------ ------ ------|------ ------ ------ ------|
D|5------5------5------5-----|5------5------5------5-----|
A|---------------------------|---------------------------|
E|---------------------------|---------------------------|
  have   some   fun    tonight,                        have


G|------ ------ ------ ------|------ ------ ------ ------|
D|5------5------5------5-----|5------5------5------5-----|
A|---------------------------|---------------------------|
E|---------------------------|---------------------------|
      some   fun       tonight,                        Eve-


G|------ ------ ------ ------|------ ------ ------ ------|
D|---------------------------|---------------------------|
A|3------3------3------3-----|3------3------3------3-----|
E|---------------------------|---------------------------|
      ry  -  thing's all   right,                      have


G|------ ------ ------ ------|------ ------ ------ ------|
D|5------5------5------5-----|5------5------5------5-----|
A|---------------------------|---------------------------|
E|---------------------------|---------------------------|
      some   fun       tonight                  Yeah,  have
                                                   we'll

G|------ ------ ------ ------|------ ------ ------ ------|
D|-------4------7------4-----|-------2------3------4-----|
A|5--------------------------|3--------------------------|
E|---------------------------|---------------------------|
      some   fun,                        some   fun tonight!


G|------ ------ ------ ------|------ ------ ------ ------|
D|5--------------------------|-------3---5---------5-----|
A|----2---------3------4-----|5---5----------------------|
E|---------------------------|---------------------------|

Please e-mail me for any corrections.
comments
We did not receive enough feedback on this tab! Please rate:
print report bad tab
1 2 3 4 5
I want to post or [tab]
guest
You may want to rate the tab now too:
select rating
Please do not post tabs as comments. Select "correction" instead!