Oops, an error
Loading. Please wait.

Love Of The Loved Bass Tab

version 1
version 1

Whole song

831 views 1 this week
no commentswrite comment
1 2 3 4 5
please rate
add to favorites
launch autoscroll
font size
0
reset
guitar tuner
Tab Pro tools
  • play this tab
  • loop segment
  • change instrument
  • show fretboard
  • metronome
×
Best way to learn
"Love Of The Loved"
Autoscroll
slow
fast
+/-
esc
set tempo
stop
Contributor
LOVE OF THE LOVED


Written by Paul McCartney



  INTRO



G|---------------------------------|---------------------------------|
D|1/2------2---2---2---2---2---2---|-2---2---2---2---2---2---2---2---|
A|---------------------------------|---------------------------------|
E|---------------------------------|---------------------------------|





G|---------------------------------|---------------------------------|
D|1/2------2---2---2---2---2---2---|1/2------2---2---2---2---2---2---|
A|---------------------------------|---------------------------------|
E|---------------------------------|---------------------------------|





  VERSE



G|---------------------------------|---------------------------------|
D|-2-----------------------2-------|-6-----------6-----------6-------|
A|-----------------2---------------|-----------------6---------------|
E|---------------------------------|---------------------------------|
   Each time   I   look              into        your eyes




G|---------------------------------|---------------------------------|
D|-5-----------5-----------5-------|-4-----------------------4-------|
A|-----------------5---------------|-----------------4---------------|
E|---------------------------------|---------------------------------|
   I   see     that there,           there   heaven  lies




G|---------------------------------|---------------------------------|
D|-2-----------------------2-------|---------------------------------|
A|-----------------2---------------|-3---------------2---------------|
E|---------------------------------|---------------------------------|
   and as      I   look              I       see the love    of  the




G|---------------------------------|---------------------------------|
D|1/2--2---2---2---2---2---2---2---|1/2------2---2---2---2---2---2---|
A|---------------------------------|---------------------------------|
E|---------------------------------|---------------------------------|
   loved




  VERSE



G|---------------------------------|---------------------------------|
D|-2-----------------------2-------|-6-----------------------6-------|
A|-----------------2---------------|-----------------6---------------|
E|---------------------------------|---------------------------------|
   Someday    there'll see           that from   the start




G|---------------------------------|---------------------------------|
D|-5-----------------------5-------|-4-----------------------4-------|
A|-----------------5---------------|-----------------4---------------|
E|---------------------------------|---------------------------------|
   my place    has been              deep  in   your heart




G|---------------------------------|---------------------------------|
D|-2-----------2-----------2-------|---------------------------------|
A|-----------------2---------------|-3---------------2---------------|
E|---------------------------------|---------------------------------|
   and in     your heart             I       see the love    of  the




G|---------------------------------|---------------------------------|
D|1/2------2---2---2---2---2-------|-0-------------------------------|
A|---------------------------------|---------------------------------|
E|---------------------------------|---------------------------------|
   loved                                             Though  I’ve




  BRIDGE



G|---------------------------------|---------------------------------|
D|-5-------5---------------5-------|---------------------------------|
A|-----------------5---------------|-5-------5-------0-------5-------|
E|---------------------------------|---------------------------------|
   said it all before      I   will  see it more and more    now that




G|---------------------------------|---------------------------------|
D|---------------------------------|---------------------------------|
A|-3-----------3---3-------3-------|-2---------------2-------2-------|
E|---------------------------------|---------------------------------|
   I'm     really  sure    you       love me                 and I




G|---------------------------------|---------------------------------|
D|-5-------5---------------5-------|---------------------------------|
A|-----------------5---------------|-5-------5-------0-------5-------|
E|---------------------------------|---------------------------------|
   know that from today    I'll see  it  in  the way         that you




G|---------------------------------|---------------------------------|
D|-4-------4---------------4-------|---------------------------------|
A|-----------------4---------------|-2-----------2---2---2---2-------|
E|---------------------------------|---------------------------------|
   look at me and say          ah    you love me




  VERSE



G|---------------------------------|---------------------------------|
D|-2-------2---------------2-------|-6-------6---------------6-------|
A|-----------------2---------------|-----------------6---------------|
E|---------------------------------|---------------------------------|
   So      let it  rain              I'll    never   care




G|---------------------------------|---------------------------------|
D|-5-----------5-----------5-------|-4-------4-----------------------|
A|-----------------5---------------|-----------------4---------------|
E|---------------------------------|---------------------------------|
   deep in    your heart             I'll   still be there




G|---------------------------------|---------------------------------|
D|-2-----------2-----------2-------|---------------------------------|
A|-----------------2---------------|-3---------------2---------------|
E|---------------------------------|---------------------------------|
   and    when I'm there             I       see the love    of  the




G|---------------------------------|---------------------------------|
D|-2---2---2---2---2---2---2-------|-0-------------------------------|
A|---------------------------------|---------------------------------|
E|---------------------------------|---------------------------------|
   loved                                             Though  I’ve




  BRIDGE



G|---------------------------------|---------------------------------|
D|-5-------5---------------5-------|---------------------------------|
A|-----------------5---------------|-5-------5-------0-------5-------|
E|---------------------------------|---------------------------------|
   said it all before      I   will  see it more and more    now that




G|---------------------------------|---------------------------------|
D|---------------------------------|---------------------------------|
A|-3-----------3---3---------------|-2---------------2-------2-------|
E|---------------------------------|---------------------------------|
   I'm     really  sure    you       love me                 and I




G|---------------------------------|---------------------------------|
D|-5-------5---------------5-------|---------------------------------|
A|-----------------5---------------|-5-------5-------0-------5-------|
E|---------------------------------|---------------------------------|
   know that from today    I'll see  it  in  the way         that you




G|---------------------------------|---------------------------------|
D|-4-------4---------------4-------|---------------------------------|
A|-----------------4---------------|-2---------------2---2---2-------|
E|---------------------------------|---------------------------------|
   look at me and say          ah    you love me




  VERSE



G|---------------------------------|---------------------------------|
D|-2-----------2-----------2-------|-6-----------6-----------6-------|
A|-----------------2---------------|-----------------6---------------|
E|---------------------------------|---------------------------------|
   So      let it  rain              I'll    never   care




G|---------------------------------|---------------------------------|
D|-5-----------5-----------5-------|-4-----------4-------------------|
A|-----------------5---------------|-----------------4---------------|
E|---------------------------------|---------------------------------|
   deep in    your heart             I'll   still be there




G|---------------------------------|---------------------------------|
D|-2-----------2-----------2-------|---------------------------------|
A|-----------------2---------------|-3-------3-------2---------------|
E|---------------------------------|---------------------------------|
   and    when I'm there             I       see the love    of  the




  OUTRO



G|---------------------------------|---------------------------------|
D|-2---2---2---2---2---2---2-------|---------------------------------|
A|---------------------------------|-3-------3-------2-------2-------|
E|---------------------------------|---------------------------------|
   loved                             I       see the love    of  the




G|---------------------------------|---------------------------------|
D|-2---2---2---2---2---2---2---2---|-----------------5---------------|
A|---------------------------------|-3-------3---------------3-------|
E|---------------------------------|---------------------------------|
   loved                             I                       see the




G|---------------------------------|---------------------------------|
D|---------------------------------|-2-------2-------2-------2-------|
A|-2-----------2---2-------2-------|---------------------------------|
E|---------------------------------|---------------------------------|
   love                    of  the   loved




G|---------------------------------|---------------------------------|
D|-5---5-------5---5-------5-------|1/2------2---2---2---2---2---2---|
A|---------------------------------|---------------------------------|
E|---------------------------------|---------------------------------|
   Oooooooooooooooooooooooooooooooooooooh




G|---------------------------------|---------------------------------|
D|-2-------------------------------|---------------------------------|
A|---------------------------------|---------------------------------|
E|---------------------------------|---------------------------------|
comments
We did not receive enough feedback on this tab! Please rate:
print report bad tab
1 2 3 4 5
I want to post or [tab]
guest
You may want to rate the tab now too:
select rating
Please do not post tabs as comments. Select "correction" instead!