Oops, an error
Loading. Please wait.

Love Of The Loved bass

version 1
version 1

Whole song

897 views 1 this week
no commentswrite comment
1 2 3 4 5
2 more votes to show rating
add to favorites
×
Save as Personal and add changes to this tab that will be seen only by you. Learn more ›
×
You can save this tab as Personal to edit and correct it or add notes. All changes will be seen only by you. Learn more »
launch autoscroll
font size
0
reset
guitar tuner
edit
Autoscroll
slow
fast
+/-
esc
set tempo
stop
LOVE OF THE LOVED


Written by Paul McCartney



  INTRO


G|---------------------------------|---------------------------------|
D|1/2------2---2---2---2---2---2---|-2---2---2---2---2---2---2---2---|
A|---------------------------------|---------------------------------|
E|---------------------------------|---------------------------------|


G|---------------------------------|---------------------------------|
D|1/2------2---2---2---2---2---2---|1/2------2---2---2---2---2---2---|
A|---------------------------------|---------------------------------|
E|---------------------------------|---------------------------------|



  VERSE

G|---------------------------------|---------------------------------|
D|-2-----------------------2-------|-6-----------6-----------6-------|
A|-----------------2---------------|-----------------6---------------|
E|---------------------------------|---------------------------------|
   Each time   I   look              into        your eyes


G|---------------------------------|---------------------------------|
D|-5-----------5-----------5-------|-------------------------7-------|
A|-----------------5---------------|-----------------7---------------|
E|---------------------------------|--5------------------------------|
   I   see     that there,           there   heaven  lies


G|---------------------------------|---------------------------------|
D|-2-----------------------2-------|---------------------------------|
A|-----------------2---------------|-3---------------2---------------|
E|---------------------------------|---------------------------------|
   and as      I   look              I       see the love    of  the


G|---------------------------------|---------------------------------|
D|1/2--2---2---2---2---2---2---2---|1/2------2---2---2---2---2---2---|
A|---------------------------------|---------------------------------|
E|---------------------------------|---------------------------------|
   loved


  VERSE

G|---------------------------------|---------------------------------|
D|-2-----------------------2-------|-6-----------------------6-------|
A|-----------------2---------------|-----------------6---------------|
E|---------------------------------|---------------------------------|
   Someday    there'll see           that from   the start


G|---------------------------------|---------------------------------|
D|-5-----------5-----------5-------|-------------------------7-------|
A|-----------------5---------------|-----------------7---------------|
E|---------------------------------|--5------------------------------|
   my place    has been              deep  in   your heart


G|---------------------------------|---------------------------------|
D|-2-----------2-----------2-------|---------------------------------|
A|-----------------2---------------|-3---------------2---------------|
E|---------------------------------|---------------------------------|
   and in     your heart             I       see the love    of  the


G|---------------------------------|---------------------------------|
D|1/2------2---2---2---2---2-------|-0-------------------------------|
A|---------------------------------|---------------------------------|
E|---------------------------------|---------------------------------|
   loved                                             Though  I’ve


  BRIDGE


G|---------------------------------|---------------------------------|
D|-5-------5---------------5-------|---------------------------------|
A|-----------------5---------------|-5-------5-------0-------5-------|
E|---------------------------------|---------------------------------|
   said it all before      I   will  see it more and more    now that


G|---------------------------------|---------------------------------|
D|---------------------------------|---------------------------------|
A|-3-----------3---3-------3-------|-2---------------2-------2-------|
E|---------------------------------|---------------------------------|
   I'm     really  sure    you       love me                 and I


G|---------------------------------|---------------------------------|
D|-5-------5---------------5-------|---------------------------------|
A|-----------------5---------------|-5-------5-------0-------5-------|
E|---------------------------------|---------------------------------|
   know that from today    I'll see  it  in  the way         that you


G|---------------------------------|---------------------------------|
D|-4-------4---------------4-------|---------------------------------|
A|-----------------4---------------|-2-----------2---2---2---2-------|
E|---------------------------------|---------------------------------|
   look at me and say          ah    you love me


   VERSE


G|---------------------------------|---------------------------------|
D|-2-------2---------------2-------|-6-------6---------------6-------|
A|-----------------2---------------|-----------------6---------------|
E|---------------------------------|---------------------------------|
   So      let it  rain              I'll    never   care


G|---------------------------------|---------------------------------|
D|-5-----------5-----------5-------|-------------------------7-------|
A|-----------------5---------------|-----------------7---------------|
E|---------------------------------|--5------------------------------|
   deep in    your heart             I'll   still be there


G|---------------------------------|---------------------------------|
D|-2-----------2-----------2-------|---------------------------------|
A|-----------------2---------------|-3---------------2---------------|
E|---------------------------------|---------------------------------|
   and    when I'm there             I       see the love    of  the


G|---------------------------------|---------------------------------|
D|-2---2---2---2---2---2---2-------|-0-------------------------------|
A|---------------------------------|---------------------------------|
E|---------------------------------|---------------------------------|
   loved                                             Though  I’ve

  BRIDGE


G|---------------------------------|---------------------------------|
D|-5-------5---------------5-------|---------------------------------|
A|-----------------5---------------|-5-------5-------0-------5-------|
E|---------------------------------|---------------------------------|
   said it all before      I   will  see it more and more    now that


G|---------------------------------|---------------------------------|
D|---------------------------------|---------------------------------|
A|-3-----------3---3---------------|-2---------------2-------2-------|
E|---------------------------------|---------------------------------|
   I'm     really  sure    you       love me                 and I


G|---------------------------------|---------------------------------|
D|-5-------5---------------5-------|---------------------------------|
A|-----------------5---------------|-5-------5-------0-------5-------|
E|---------------------------------|---------------------------------|
   know that from today    I'll see  it  in  the way         that you


G|---------------------------------|---------------------------------|
D|-4-------4---------------4-------|---------------------------------|
A|-----------------4---------------|-2---------------2---2---2-------|
E|---------------------------------|---------------------------------|
   look at me and say          ah    you love me


  VERSE

G|---------------------------------|---------------------------------|
D|-2-----------2-----------2-------|-6-----------6-----------6-------|
A|-----------------2---------------|-----------------6---------------|
E|---------------------------------|---------------------------------|
   So      let it  rain              I'll    never   care


G|---------------------------------|---------------------------------|
D|-5-----------5-----------5-------|-------------------------7-------|
A|-----------------5---------------|-----------------7---------------|
E|---------------------------------|--5------------------------------|
   deep in    your heart             I'll   still be there


G|---------------------------------|---------------------------------|
D|-2-----------2-----------2-------|---------------------------------|
A|-----------------2---------------|-3-------3-------2---------------|
E|---------------------------------|---------------------------------|
   and    when I'm there             I       see the love    of  the


  OUTRO

G|---------------------------------|---------------------------------|
D|-2---2---2---2---2---2---2-------|---------------------------------|
A|---------------------------------|-3-------3-------2-------2-------|
E|---------------------------------|---------------------------------|
   loved                             I       see the love    of  the


G|---------------------------------|---------------------------------|
D|-2---2---2---2---2---2---2---2---|-----------------5---------------|
A|---------------------------------|-3-------3---------------3-------|
E|---------------------------------|---------------------------------|
   loved                             I                       see the


G|---------------------------------|---------------------------------|
D|---------------------------------|-2-------2-------2-------2-------|
A|-2-----------2---2-------2-------|---------------------------------|
E|---------------------------------|---------------------------------|
   love                    of  the   loved


G|---------------------------------|---------------------------------|
D|-5---5-------5---5-------5-------|1/2------2---2---2---2---2---2---|
A|---------------------------------|---------------------------------|
E|---------------------------------|---------------------------------|
   Oooooooooooooooooooooooooooooooooooooh


G|---------------------------------|---------------------------------|
D|-2-------------------------------|---------------------------------|
A|---------------------------------|---------------------------------|
E|---------------------------------|---------------------------------|

            
            
Suggest correction
Creating personal tab
Creating personal tab
You can edit any tab online and save it as your Personal.

You can edit, replace or remove any tab part or add personal notes – all changes will be seen only by you.

Personal tabs can be accessed anytime from any device, even offline.
Learn more »
Give kudos to tab author, rate the tab!
1 2 3 4 5
comments
print report bad tab
guest
You may want to rate the tab now too:
select rating
Wanna post a correction for this tab? Suggest correction