Oops, an error
Loading. Please wait.

Magical Mystery Tour bass

version 2
version 2

Whole song

Interactive

8,670 views 9 this week
1 commentread comment
1 2 3 4 5
x 10
add to favorites
×
Save as Personal and add changes to this tab that will be seen only by you. Learn more ›
×
You can save this tab as Personal to edit and correct it or add notes. All changes will be seen only by you. Learn more »
launch autoscroll
font size
0
reset
guitar tuner
edit
Autoscroll
slow
fast
+/-
esc
set tempo
stop
Author
  --------------------------------------------------------------

   THE BEATLES - MAGICAL MYSTERY TOUR (McCartney) From MAGICAL
                 MYSTERY TOUR album. Released in the USA on 27
                 November 1967.

  --------------------------------------------------------------





   The first Magical Mystery Tour session took place in the night
   of 25 April. Much of the evening was spent in rehearsal, Paul
   seated at the piano, explaining to the other Beatles his ideas
   so far. Trumpets were needed, it was decided. After a while
   recording proper began: a basic rhythm track of two guitars,
   piano and drums. Three takes were made, the third being "best"
   and this was then subjected to five reduction mixes, down to
   one track of a new tape, the final edition, take eight, being
   marked "best basic".





    Roll up! Roll up for the magical mystery tour
    Step right this way!

    Roll up
    Roll up for the mystery tour
    Roll up
    Roll up for the mystery tour
    Roll up (And that's an invitation)
    Roll up for the mystery tour
    Roll up (To make a reservation)
    Roll up for the mystery tour

    The magical mystery tour is waiting to take you away
    Waiting to take you away

    Roll up
    Roll up for the mystery tour
    Roll up
    Roll up for the mystery tour
    Roll up (We've got ev'rything you need)
    Roll up for the mystery tour
    Roll up (Satisfaction guaranteed)
    Roll up for the mystery tour

    The magical mystery tour is hoping to take you away
    Hoping to take you away

    Mystery trip

    Aaaaaaaah
    The magical mystery tour
    Roll up
    Roll up for the mystery tour
    Roll up (And that's an invitation)
    Roll up for the mystery tour
    Roll up (To make a reservation)
    Roll up for the mystery tour

    The magical mystery tour is coming to take you away
    Coming to take you away
    The magical mystery tour is dying to take you away
    Dying to take you away
    Take you today





    INTRO
    00:00

  G|---------------------------------|---------------------------------|
  D|---------------------------------|---------------------------------|
  A|-5-------------------------------|---------------------------------|
  E|---------------------------------|-5-------------------------------|



  G|---------------------------------|---------------------------------|
  D|---------------------------------|---------------------------------|
  A|-7-------------------------------|---------------------------------|
  E|---------------------------------|---------------------------------|



  G|---------------------------------|---------------------------------|
  D|---------------------------------|---------------------------------|
  A|---------------------------------|---------------------------------|
  E|---------------------------------|---------------------------------|



    VERSE
    00:09

  G|---------------------------------|---------------------------------|
  D|---------------------------------|---------------------------------|
  A|---------------------------------|---------------------------------|
  E|-0-------------------------------|---------------------------------|



  G|---------------------------------|---------------------------------|
  D|---------------------------------|---------------------------------|
  A|---------------------------------|---------------------------------|
  E|-3-------------------------------|-5-------------------------------|



  G|---------------------------------|---------------------------------|
  D|---------------------------------|---------------------------------|
  A|---------------------------------|---------------------------------|
  E|-0-------------------------------|---------------------------------|



  G|---------------------------------|---------------------------------|
  D|---------------------------------|---------------------------------|
  A|---------------------------------|---------------------------------|
  E|-3-------------------------------|-5-------------------------------|



  G|---------------------------------|---------------------------------|
  D|---------------------------------|---------------------------------|
  A|-7-------7-------7-------7---7---|-5-H-7---7-------7---7---7-------|
  E|---------------------------------|---------------------------------|



  G|---------------------------------|---------------------------------|
  D|---------------------------------|---------------------------------|
  A|---------------------------------|---------------------------------|
  E|-3---------------3-------3-------|-5-------5-------5-------5-------|



  G|---------------------------------|---------------------------------|
  D|---------------------------------|---------------------------------|
  A|-5-H-7---7---7---7---7---7---7---|-7---7---7---7---7---5-----------|
  E|---------------------------------|-------------------------7---5---|



  G|---------------------------------|---------------------------------|
  D|---------------------------------|---------------------------------|
  A|---------------------------------|---------------------------------|
  E|-3---------------3-------3-------|-3-H-5---5-------5---5---5-------|



    CHORUS
    00:32

  G|---------------------------------|---------------------------------|
  D|---------------------------------|---------------------------------|
  A|-5-------------------------------|-3-------------------------------|
  E|---------------------------------|---------------------------------|



  G|---------------------------------|---------------------------------|
  D|---------------------------------|---------------------------------|
  A|-2-------------------------------|-1-------------------------------|
  E|---------------------------------|---------------------------------|



  G|---------------------------------|---------------------------------|
  D|---------------------------------|---------------------------------|
  A|-0-----------------------0-------|-0-------------------------------|
  E|---------------------------------|---------------------------------|



    VERSE
    00:41

  G|---------------------------------|---------------------------------|
  D|---------------------------------|---------------------------------|
  A|-7-------------------------------|---------------------------------|
  E|---------------------------------|---------------------------------|



  G|---------------------------------|---------------------------------|
  D|---------------------------------|---------------------------------|
  A|---------------------------------|---------------------------------|
  E|-3-------------------------------|-5-------------------------------|



  G|---------------------------------|---------------------------------|
  D|---------------------------------|---------------------------------|
  A|-7-------------------------------|---------------------------------|
  E|---------------------------------|---------------------------------|



  G|---------------------------------|---------------------------------|
  D|---------------------------------|---------------------------------|
  A|---------------------------------|---------------------------------|
  E|-3-------------------------------|-5-------------------------------|



  G|---------------------------------|---------------------------------|
  D|---------------------------------|---------------------------------|
  A|-7-------7---7---7---7---7---7---|-7---7---7---7---7---5-----------|
  E|---------------------------------|-------------------------7---5---|



  G|---------------------------------|---------------------------------|
  D|---------------------------------|---------------------------------|
  A|---------------------------------|---------------------------------|
  E|-3---------------3-------3-------|-5-------5-------5-------5-------|



  G|---------------------------------|---------------------------------|
  D|---------------------------------|---------------------------------|
  A|-5-H-7---7---7---7---7---7---7---|-7---7---7---7---7---5-----------|
  E|---------------------------------|-------------------------7---5---|



  G|---------------------------------|---------------------------------|
  D|---------------------------------|---------------------------------|
  A|---------------------------------|---------------------------------|
  E|-3---------------3-------3-------|-5-------5-------5-------5-------|



    CHORUS
    01:03

  G|---------------------------------|---------------------------------|
  D|---------------------------------|---------------------------------|
  A|-5-------------------------------|-3-------------------------------|
  E|---------------------------------|---------------------------------|



  G|---------------------------------|---------------------------------|
  D|---------------------------------|---------------------------------|
  A|-2-------------------------------|-1-------------------------------|
  E|---------------------------------|---------------------------------|



  G|---------------------------------|---------------------------------|
  D|-7-------7-------7-------7-------|-7-------7-------7-------7-------|
  A|---------------------------------|---------------------------------|
  E|---------------------------------|---------------------------------|



    BRIDGE
    01:12

  G|---------------------------------|---------------------8---11--8---|
  D|-9-------9-------9-------9-------|-9-------9-------9---------------|
  A|---------------------------------|---------------------------------|
  E|---------------------------------|---------------------------------|



  G|---------------------------------|-----------------11--------------|
  D|---------------------------------|---------11--------------11------|
  A|-9---------------9-------9-------|-9-------------------------------|
  E|---------------------------------|---------------------------------|



  G|---------------------------------|---------------------8---11--8---|
  D|-9-------9-------9-------9-------|-9-------9-------9---------------|
  A|---------------------------------|---------------------------------|
  E|---------------------------------|---------------------------------|



  G|---------------------------------|---------------------------------|
  D|---------------------------------|---------------------------------|
  A|-9-------9-------9-------9-------|-9-------9-------9---------------|
  E|---------------------------------|---------------------4-----------|



  G|---------------------------------|---------------------------------|
  D|---------------------------------|---------------------------------|
  A|---------------------------------|---------------------------------|
  E|-5-------5-------5-------5-------|-7-------7-------7-------7-------|



    VERSE
    01:27

  G|---------------------------------|---------------------------------|
  D|---------------------------------|---------------------------------|
  A|-7-------------------------------|---------------------------------|
  E|---------------------------------|---------------------------------|



  G|---------------------------------|---------------------------------|
  D|---------------------------------|---------------------------------|
  A|---------------------------------|---------------------------------|
  E|-3-------------------------------|-5-------------------------------|



  G|---------------------------------|---------------------------------|
  D|---------------------------------|---------------------------------|
  A|---------------------------------|---------------------------------|
  E|-0-------------------------------|---------------------------------|



  G|---------------------------------|---------------------------------|
  D|---------------------------------|---------------------------------|
  A|---------------------------------|---------------------------------|
  E|-3-------------------------------|-5-------------------------------|



  G|---------------------------------|---------------------------------|
  D|---------------------------------|---------------------------------|
  A|-7---7---7---7---7---7---7---7---|-7---7---7---7---7---5-----------|
  E|---------------------------------|-------------------------7---5---|



  G|---------------------------------|---------------------------------|
  D|---------------------------------|---------------------------------|
  A|---------------------------------|-----------------------------5--/|
  E|-3---3---3-------3---3-------3---|-5---5---5---5---5---5---5-------|



  G|---------------------------------|---------------------------------|
  D|---------------------------------|---------------------------------|
  A|-7---7---7---7---7---7---7---7---|-7---7---7---7---7---5-----------|
  E|---------------------------------|-------------------------7---5---|



  G|---------------------------------|---------------------------------|
  D|---------------------------------|---------------------------------|
  A|---------------------------------|---------------------------------|
  E|-3---3---3---3---3---3---3---3---|-5---5---5---5---5---5---5---5---|



    CHORUS
    01:56

  G|---------------------------------|---------------------------------|
  D|---------------------------------|---------------------------------|
  A|-5-------------------------------|-3-------------------------------|
  E|---------------------------------|---------------------------------|



  G|---------------------------------|---------------------------------|
  D|---------------------------------|---------------------------------|
  A|-2-------------------------------|-1-------------------------------|
  E|---------------------------------|---------------------------------|



  G|---------------------------------|---------------------------------|
  D|-7---------------------7----7----|-7---------------------5---------|
  A|---------------------------------|----------------------------7----|
  E|---------------------------------|---------------------------------|



  G|---------------------------------|---------------------------------|
  D|---------------------------------|---------------------------------|
  A|-5-------------------------------|-3-------------------------------|
  E|---------------------------------|---------------------------------|



  G|---------------------------------|---------------------------------|
  D|---------------------------------|---------------------------------|
  A|-2-------------------------------|-1-------------------------------|
  E|---------------------------------|---------------------------------|



  G|---------------------------------|---------------------------------|
  D|-7----7----7-----7----7----7-----|-7---------7----------7----------|
  A|---------------------------------|---------------------------------|
  E|---------------------------------|------5----------5---------5-----|



  G|---------------------------------|---------------------------------|
  D|---------------------------------|-----------------------7----7----|
  A|-5-------------------------------|---------------------------------|
  E|---------------------------------|---------------------------------|



  G|-7\------------------------------|
  D|---------------------------------|
  A|---------------------------------|
  E|---------------------------------|



    OUTRO-PIANO SOLO
    02:26

  G|---------------------------------|-7-\-----------------------------|
  D|------------------7----7----7----|---------------------------------|
  A|---------------------------------|---------------------------------|
  E|---------------------------------|---------------------------------|



  G|---------------------------------|-7-\-----------------------------|
  D|--------7----7----7----7----7----|---------------------------------|
  A|---------------------------------|---------------------------------|
  E|---------------------------------|---------------------------------|



  G|---------------------------------|---------------------------------|
  D|-------------7----7----7----7----|------------7---------------7----|
  A|---------------------------------|-5---------------5---------------|
  E|---------------------------------|---------------------------------|



  G|---------------------------------|---------------------------------|
  D|------------7---------------7----|------------7---------------7----|
  A|-5---------------5---------------|-5---------------5---------------|
  E|---------------------------------|---------------------------------|



  G|---------------------------------|---------------------------------|
  D|------------7---------------7----|------------7---------------7----|
  A|-5---------------5---------------|-5---------------5---------------|
  E|---------------------------------|---------------------------------| ....

            
            
Suggest correction
Creating personal tab
Creating personal tab
You can edit any tab online and save it as your Personal.

You can edit, replace or remove any tab part or add personal notes – all changes will be seen only by you.

Personal tabs can be accessed anytime from any device, even offline.
Learn more »
comments
print report bad tab
1 comment total.
0 reply
maguri [tm] 31,554 Nov 08, 2016 08:08 AM

Great, thank you!

guest
You may want to rate the tab now too:
select rating
Wanna post a correction for this tab? Suggest correction