Oops, an error
Loading. Please wait.
We have an official Michelle tab made by UG professional guitarists. Check out the tab »
×
35,062 views 72 this week
3 commentsread comments
1 2 3 4 5
x 12
add to favorites
×
Save as Personal and add changes to this tab that will be seen only by you. Learn more ›
×
You can save this tab as Personal to edit and correct it or add notes. All changes will be seen only by you. Learn more »
launch autoscroll
font size
0
reset
guitar tuner
backing track
0:00
0:00
edit
Autoscroll
slow
fast
+/-
esc
set tempo
stop
Author
Michelle
The Beatles
Written by John Lennon and Paul McCartney; released on "Rubber Soul" album

Another masterpiece from Paul. And this is the only song in which they sing 
some words in French :-)

Intro:
G|------ ------ ------ 9-----|10---- ------ ------ ------|
D|10-------------------------|---------------------10----|
A|---------------------------|---------------------------|
E|---------------------------|---------------------------|



G|------ ------ ------ ------|------ ------ ------ ------|
D|---------------------------|10-------------------------|
A|8--------------------------|---------------------------|
E|---------------------------|---------------------------|


Verse:
G|------ ------ ------ ------|------ ------ ------ ------|
D|--------------10---------7-|8--------------------------|
A|8--------------------------|--------------8------------|
E|---------------------------|---------------------------|
  Mi     -      chelle,              ma     belle,
  Ooooooooooooooooooooooooooooooooooooooooooooooooooooooo

G|------ ------ ------ ------|------ ------ ------ ------|
D|--------------8------------|---------------------------|
A|6--------------------------|5--------------------------|
E|---------------------------|--------------7------------|
  These  are    words  that   go     to  -  ge  -  ther
  Ooooooooooooooooooooooooooooooooooooooooooooooooooooooo

G|------ ------ ------ ------|------ ------ ------ ------|
D|---------------------------|---------------------------|
A|---------------------------|--------------5------7-----|
E|8-------------7------------|8--------------------------|
  well,         my     Michelle
  Oooooooooooooooooooooooooooooooooooooooooooooooooo
Verse:
G|------ ------ ------ ------|------ ------ ------ ------|
D|-------------------------7-|8--------------------------|
A|8--------------------------|--------------8------------|
E|--------------8------------|---------------------------|
  Mi     -      chelle,              ma     belle,
  Ooooooooooooooooooooooooooooooooooooooooooooooooooooooo

G|------ ------ ------ ------|------ ------ ------ ------|
D|--------------8------------|---------------------------|
A|6--------------------------|5--------------------------|
E|---------------------------|--------------7------------|
  Sont   les    mots   qui    vont   tres   bien   en-
  Ooooooooooooooooooooooooooooooooooooooooooooooooooooooo

G|------ ------ ------ ------|------ ------ ------ ------|
D|---------------------------|---------------------------|
A|---------------------------|--------------5------7-----|
E|8-------------7------------|8--------------------------|
  semble,       tres bien en- semble                  I
  Oooooooooooooooooooooooooooooooooooooooooooooooooo
Bridge:
G|------ ------ ------ ------|------ ------ ------ ------|
D|---------------------------|---------------------------|
A|8-----------------6--------|8-----------------6--------|
E|--------------8------------|--------------8------------|
  love you, I   love you, I   love   you!


G|------ ------ ------ ------|------ ------ ------ ------|
D|6--------------------------|---------------------------|
A|-------9------8------6-----|-------6------8------------|
E|---------------------------|9--------------------9-----|
      that's all I  want to   say
  Ooooooooooooooooooooooooooooooooooooooooooooooooooooooo

G|------ ------ ------ ------|------ ------ ------ ------|
D|---------------------------|-------5------6------8-----|
A|-------5------7------------|8--------------------------|
E|8--------------------8-----|---------------------------|
      Until  I      find   a  way,              I  will
  Oooooooooooooooooooooooooooooooooooooooooo

G|------ ------ ------ 9-----|10---- ------ ------ ------|
D|10-------------------------|---------------------10----|
A|---------------------------|---------------------------|
E|---------------------------|---------------------------|
  say    the    on  -  ly     words  I      know       that


G|------ ------ ------ ------|------ ------ ------ ------|
D|---------------------------|10-------------------------|
A|8--------------------------|---------------------------|
E|---------------------------|---------------------------|
  you'll        un  -  der -  stand

Verse:
G|------ ------ ------ ------|------ ------ ------ ------|
D|--------------10---------7-|8--------------------------|
A|8--------------------------|--------------8------------|
E|---------------------------|---------------------------|
  Mi     -      chelle,              ma     belle,
  Ooooooooooooooooooooooooooooooooooooooooooooooooooooooo

G|------ ------ ------ ------|------ ------ ------ ------|
D|--------------8------------|---------------------------|
A|6--------------------------|5--------------------------|
E|---------------------------|--------------7------------|
  Sont   les    mots   qui    vont   tres   bien   en-
  Ooooooooooooooooooooooooooooooooooooooooooooooooooooooo

G|------ ------ ------ ------|------ ------ ------ ------|
D|---------------------------|---------------------------|
A|---------------------------|--------------5------7-----|
E|8-------------7------------|8--------------------------|
  semble,       tres bien en- semble                  I
  Oooooooooooooooooooooooooooooooooooooooooooooooooo
Bridge:
G|------ ------ ------ ------|------ ------ ------ ------|
D|---------------------------|---------------------------|
A|8-----------------6--------|8-----------------6--------|
E|--------------8------------|--------------8------------|
  need to,  I   need to,  I   need          to,


G|------ ------ ------ ------|------ ------ ------ ------|
D|6--------------------------|---------------------------|
A|-------9------8------6-----|-------6------8------------|
E|---------------------------|9--------------------9-----|
      I  need to     make you see
  Ooooooooooooooooooooooooooooooooooooooooooooooooooooooo

G|------ ------ ------ ------|------ ------ ------ ------|
D|---------------------------|-------5------6------8-----|
A|-------5------7------------|8--------------------------|
E|8--------------------8-----|---------------------------|
      Oh what you   mean   to me,                      un-
  Oooooooooooooooooooooooooooooooooooooooooo

G|------ ------ ------ 9-----|10---- ------ ------ ------|
D|10-------------------------|---------------------10----|
A|---------------------------|---------------------------|
E|---------------------------|---------------------------|
  til    I      do     I'm    ho- ping   you       will


G|------ ------ ------ ------|------ ------ ------ ------|
D|---------------------------|10-------------------------|
A|8--------------------------|---------------------------|
E|---------------------------|---------------------------|
  know          what   I      mean

Verse (solo):
G|------ ------ ------ ------|------ ------ ------ ------|
D|--------------10---------7-|8--------------------------|
A|8--------------------------|--------------8------------|
E|---------------------------|---------------------------|
      I      love   you!


G|------ ------ ------ ------|------ ------ ------ ------|
D|--------------8------------|---------------------------|
A|6--------------------------|5--------------------------|
E|---------------------------|--------------7------------|



G|------ ------ ------ ------|------ ------ ------ ------|
D|---------------------------|---------------------------|
A|---------------------------|---------------------------|
E|8-------------7------------|8-------------8------8-----|
                                                      I

Bridge:
G|------ ------ ------ ------|------ ------ ------ ------|
D|---------------------------|---------------------------|
A|8-----------------6--------|8-----------------6--------|
E|--------------8------------|--------------8------------|
  want you, I   want you, I   want          you,


G|------ ------ ------ ------|------ ------ ------ ------|
D|6--------------------------|---------------------------|
A|-------9------8------6-----|-------6------8------------|
E|---------------------------|9--------------------9-----|
      I  think you   know by  now
  Ooooooooooooooooooooooooooooooooooooooooooooooooooooooo

G|------ ------ ------ ------|------ ------ ------ ------|
D|---------------------------|-------5------6------8-----|
A|-------5------7------------|8--------------------------|
E|8--------------------8-----|---------------------------|
    I'll get to     you   somehow,                     un-
  Oooooooooooooooooooooooooooooooooooooooooo

G|------ ------ ------ 9-----|10---- ------ ------ ------|
D|10-------------------------|---------------------10----|
A|---------------------------|---------------------------|
E|---------------------------|---------------------------|
  til    I      do     I'm    telling    you,          so


G|------ ------ ------ ------|------ ------ ------ ------|
D|---------------------------|10------------10-----------|
A|8--------------------------|---------------------------|
E|---------------------------|---------------------------|
  you'll        un  -  der -  stand

Verse:
G|------ ------ ------ ------|------ ------ ------ ------|
D|--------------10---------7-|8--------------------------|
A|8--------------------------|--------------8----------5-|
E|---------------------------|---------------------------|
  Mi     -      chelle,              ma     belle,
  Ooooooooooooooooooooooooooooooooooooooooooooooooooooooo

G|------ ------ ------ ------|------ ------ ------ ------|
D|--------------8------------|---------------------------|
A|6--------------------------|5--------------------------|
E|---------------------------|--------------7------------|
  Sont   les    mots   qui    vont   tres   bien   en-
  Ooooooooooooooooooooooooooooooooooooooooooooooooooooooo

G|------ ------ ------ ------|------ ------ ------ ------|
D|---------------------------|---------------------------|
A|---------------------------|---------------------------|
E|8-------------7---7--------|8-------------8---8--------|
  semble,       tres bien en- semble            And I will
  Oooooooooooooooooooooooooooooooooooooooooooooooooo

G|------ ------ ------ 9-----|10---- ------ ------ ------|
D|10-------------------------|---------------------10----|
A|---------------------------|---------------------------|
E|---------------------------|---------------------------|
  say    the    on  -  ly     words  I      know,      that


G|------ ------ ------ ------|------ ------ ------ ------|
D|---------------------------|10-------------------------|
A|8--------------------------|---------------------------|
E|---------------------------|---------------------------|
  you'll        un  -  der    stand,        my     Michelle
                                            Aaaaaaaaaaaaa
Verse (solo):
G|------ ------ ------ ------|------ ------ ------ ------|
D|-------------------------7-|8--------------------------|
A|8--------------------------|--------------8------------|
E|--------------8------------|---------------------------|
  aaaaaaa


G|------ ------ ------ ------|------ ------ ------ ------|
D|--------------8------------|---------------------------|
A|6--------------------------|5--------------------------|
E|---------------------------|--------------7------------|



G|------ ------ ------ ------|------ ------ ------ ------|
D|---------------------------|---------------------------|
A|---------------------------|--------------5------7-----|
E|8-------------7------------|8--------------------------|



G|------ ------ ------ ------|------ ------ ------ ------|
D|-------------------------7-|8--------------------------|
A|8--------------------------|--------------8------------|
E|--------------8------------|---------------------------|
  fade...

Please e-mail me for any corrections.

            
            
Suggest correction
Creating personal tab
Creating personal tab
You can edit any tab online and save it as your Personal.

You can edit, replace or remove any tab part or add personal notes – all changes will be seen only by you.

Personal tabs can be accessed anytime from any device, even offline.
Learn more »
comments
print report bad tab
3 comments total.
+1 reply
bass_moose 10 Feb 26, 2008 01:12 PM

super good time tab!

0 reply
Tragically_Hip 10 Jun 12, 2010 03:28 AM

pretty good mate

0 reply
top4 20 Sep 14, 2013 01:36 AM

wonderfull

guest
You may want to rate the tab now too:
select rating
Wanna post a correction for this tab? Suggest correction