Oops, an error
Loading. Please wait.

Michelle Tab

version 4
version 4

Interactive

Video

277,313 views 33 this week
7 commentsread comments
1 2 3 4 5
x 17
add to favorites
launch autoscroll
font size
0
reset
how to read this tab
guitar tuner
backing track
0:00
0:00
×
Best way to learn
"Michelle"
Autoscroll
slow
fast
+/-
esc
set tempo
stop
MICHELLE
As recorded by The Beatles
(From the 2003 Album RUBBER SOUL)


Transcribed by Paul Bell

 Music by Lennon and Mcartney
Arranged by Paul Bell
 

Gtr I (E A D G B E) 


   Q=105
  2/2
   Gtr I
   Q  Q   Q    Q     Q  Q   Q    Q     Q   Q  Q  Q    Q  a Q  Q  Q
e|----5--------5---|----5--------5---|-----5--3--1--|-5----5--5--5---||
B|----6--------6---|----6--------6---|-----3--3--3--|-5--4h5--5--5---||
G|-7------6---(6)--|-5------4---(4)--|-3------------|----------------||
D|-----------------|-0-----(0)-------|-0------------|----------------||
A|-0-----(0)---4---|-------------0---|--------------|-0--------------||
E|-----------------|-----------------|--------------|----------------||
  H      Q    Q     H      Q    Q     H.        Q    W


   H       H         Q  Q  H         Q  Q  Q  Q    Q  Q  Q  Q
e|-5-------5-------|----6--1-------|-0--5--0--0--|----1--4--1---|
B|-----7-------7---|----3------3---|----5-----1--|-3--0--3--0---|
G|-----7-------7---|----3------3---|----5-----2--|-1--1--4--1---|
D|-0--(0)----------|-------0--(0)--|-------------|-3--0--3--0---|
A|---------0--(0)--|---------------|-3-----------|-2------------|
E|-----------------|-3-------------|-------3-----|--------------|
  Q   Q   Q   Q     H     Q   Q     H     H       Q  Q  Q  Q


   H       Q  E E   +Q   Q  Q  Q      H       H         Q  Q  H
e|-0----------1-0-|-(0)-----------||--5-------5-------|----6--1--------|
B|-----2---3--3-2-|-(2)--2-----2--||o-----7-------7---|----3------3----|
G|-----2---4------|------2-----2--||------7-------7---|----3------3----|
D|----------------|---------------||--0--(0)----------|-------0--(0)---|
A|-0--(0)---------|--0---0--2--4--||o---------0--(0)--|----------------|
E|---------4------|---------------||------------------|-3--------------|
  Q   Q   H         Q   Q  Q  Q      Q   Q   Q   Q     H     Q   Q


                                       |-3-|
   Q  Q  Q  Q    Q  Q  Q  Q    H       Q Q Q    H.            E E
e|-0--5--0--0--|----1--4--1--|-0---------0-1--|-0---------------5--|
B|----5-----1--|-3--0--3--0--|-----2---3-2-3--|------2---(2)-------|
G|----5-----2--|-1--1--4--1--|-----2---4------|------2---(2)-------|
D|-------------|-3--0--3--0--|----------------|--------------------|
A|-3-----------|-2-----------|-0--(0)---------|-0---(0)---2---4----|
E|-------3-----|-------------|---------4------|--------------------|
  H     H       Q  Q  Q  Q    Q   Q   H        Q    Q    Q   Q


   |--3--|  |--3--|
   Q  Q  Q  Q  Q  Q     Q   H.            E E E E Q.    E   W
e|-10-------10--------|-12--10-----------|---5-6-5-6-------|-1------------|
B|-10-13-10-10-13-10--|-10--10------10---|-4-------------6-|-3------------|
G|-10-------10--------|-12--10------10---|-5---------------|-3------------|
D|--0-----------------|--0--(0)----------|-3-------0-------|-------0------|
A|-----------0--------|----------0--(0)--|-----6-------3---|-1--3-----1---|
E|--------------------|------------------|-----------------|--------------|
   H        H           Q   Q   Q   Q     Q   Q   Q   Q     Q  Q  Q  Q


   E E  E  E  Q  E E   +E  E +Q   +E  E Q    Q  Q  Q   Q     Q  Q   Q    Q
e|-0-5--5--5-10--5-3-|-(3)-1-(1)--(1)-1-3--|-5--5--5---5---|-5--5---5----5----|
B|-3---(3)-----------|---------------------|-6-----6--(6)--|-6------6---(6)---|
G|-0---(0)-----------|---------------------|-7-----6--(6)--|-5------4---(4)---|
D|-------------------|--0-----2----3----5--|-7-------------|-0-----(0)--------|
A|-0----2--------0---|---------------------|-----------4---|-------------0----|
E|------------9------|---------------------|---------------|------------------|
  Q    Q     Q  Q      Q     Q    Q    Q    H     Q   Q     H      Q    Q


                       1.                    2.
   H        Q    Q     Q   Q    Q    Q       Q   Q    Q    Q
e|-5--------0--------|-0---5----5----5----||-0---5----5----5---||
B|-6---6----8----6---|-2---5----5----5---o||-2---5----5----5---||
G|-3---3---------7---|-2------------------||-2-----------------||
D|-0--(0)--(0)--(0)--|--------------------||-------------------||
A|-------------------|-0--(0)--(0)--(0)--o||-0--(0)--(0)--(0)--||
E|-------------------|--------------------||-------------------||
  Q   Q   +Q   +Q     Q  +Q   +Q   +Q       Q  +Q   +Q   +Q


   Q   Q      Q   Q            Q  Q  Q  Q
e|---------------------------|-------------|
B|-----3----------3----------|----3-----3--|
G|-----2----------2-------2--|-3--------3--|
D|-0--(0)-0-2-4--(4)--5------|-------3-----|
A|------------0--(0)-(0)-(0)-|-------5-----|
E|---------------------------|-3-----------|
  Q  +E  E E Q  +E   E   E    H     H
      |-3--|     |---3---|


   Q   Q      Q   Q     Q   H          Q
e|--------------------|--------------------|
B|-----1----------1---|-----0----------0---|
G|-----0------0---0---|-----1----------1---|
D|-2--(2)-2-3---------|-0--(0)-0-2-3-------|
A|-3--------------3---|-2--(2)---------2---|
E|------------3--(3)--|------------4--(4)--|
  Q   E  E E Q   Q     Q   E  E E Q   Q
      |-3--|               |-3--|


        |-3-|          |-3-| |-3-|     |--3--|  |--3--|
  Q  Q  Q Q Q    Q  Q  E E E E E E     Q  Q  Q  Q  Q  Q
e|--------------|-------------------||-10-------10--------|
B|--------------|-------------------||-10-13-10-10-13-10--|
G|----2---------|----2--------------||-10-------10--------|
D|----2----3-0--|----2----------0-2-||--0-----------------|
A|-4-----2------|-4-------0-2-3-----||-----------0--------|
E|-5-----4------|-5-----0-----------||--------------------|
  H     H        H     H               H        H


    Q.       S  S  H        E E E E Q.    E   W             E E  E  E  Q  Q
e|-12-------13p12-10------|---5-6-5-6-------|-1-----------|-0-5--5--5-10--5--|
B|------10------------10--|-4-------------6-|-3-----------|-3---(3)----------|
G|------12------------10--|-5---------------|-3-----------|-0---(0)----------|
D|--0---(0)---------------|-3-------0-------|-------0-----|------------------|
A|-----------------0------|-----6-------3---|-1--3-----1--|-0----2--------0--|
E|------------------------|-----------------|-------------|------------9-----|
   Q    Q         Q   Q    Q   Q   Q   Q     Q  Q  Q  Q    Q    Q     Q  Q


   E E +H      Q    Q  Q  Q   Q     Q  Q   Q.      E   H        Q    Q
e|-3-1-(1)-----3--|-5--5--5---5---|-5--5---5-------5-|-5--------0--------|
B|-3--------------|-6-----6--(6)--|-6------6---(6)---|-6---6----8----6---|
G|-2-----------0--|-7-----6--(6)--|-5------4---(4)---|-3---3---------7---|
D|-0----2---3-----|-7-------------|-0-----(0)--------|-0--(0)--(0)--(0)--|
A|----------------|-----------4---|-------------0----|-------------------|
E|----------------|---------------|------------------|-------------------|
  Q    Q   Q  Q    H     Q   Q     H      Q    Q      Q   Q   +Q   +Q


   Q   Q    Q    Q      H       H         Q  Q  H         Q  Q  Q  Q
e|-0---5----5----5---||-5-------5-------|----6--1-------|-0--5--0--0--|
B|-2---5----5----5---||-----7-------7---|----3------3---|----5-----1--|
G|-2-----------------||-----7-------7---|----3------3---|----5-----2--|
D|-------------------||-0--(0)----------|-------0--(0)--|-------------|
A|-0--(0)--(0)--(0)--||---------0--(0)--|---------------|-3-----------|
E|-------------------||-----------------|-3-------------|-------3-----|
  Q  +Q   +Q   +Q      Q   Q   Q   Q     H     Q   Q     H     H


                         |-3-|
   Q  Q  Q  Q    H       Q Q Q    H.            E E   Q  Q   Q   E E
e|----1--4--1--|-0---------0-1--|-0---------------0-|-1------3---0-1-|
B|-3--0--3--0--|-----2---3-2-3--|------2---(2)--3---|-3--3---2-------|
G|-1--1--4--1--|-----2---4------|------2---(2)------|-2------2-------|
D|-3--0--3--0--|----------------|-------------------|----------------|
A|-2-----------|-0--(0)---------|-0---(0)---0-------|-0-----(0)--0---|
E|-------------|---------4------|-------------------|----------------|
  Q  Q  Q  Q    Q   Q   H        Q    Q    Q   Q     H      Q   Q


   Dm7     Dm6
   +Q   Q   Q   E E   H     Q  Q
e|-(1)------3-----0-|-1-----0-----|
B|--1---3---0-------|-3--------3--|
G|--2-------2-------|----2--0-----|
D|--0------(0)------|-0--------3--|
A|--------------0---|-------------|
E|------------------|-------------|
   H       Q   Q     Q  Q  Q  Q


                            |-3--|     |-3--|
  H        Q    Q       Q   E  E E Q  +E  E E
e|---------------0---||-----------0-2--(2)-3-5---|
B|-2--------3----2---||o-3--(3)-3-------3--------|
G|-----2----4--------||------2----------2--------|
D|-2---2---(2)--(2)--||------3-------------------|
A|-0--(0)--(0)--(0)--||o-5----------0------------|
E|-------------------||--------------------------|
  Q   Q   +Q   +Q       H          Q   Q


                     |-3--|             |-3--|                 |-3-|
   H     H       Q  +E  E E Q  Q    Q  +E  E E Q  Q    H       Q Q Q
e|-6-----1-----|-0--(0)-0-1-3-----|----------0-------|-----------1------|
B|----3-----3--|---------------1--|-3--(3)-3---6-----|-2-------3---3----|
G|----3-----3--|---------------0--|-----1---------4--|-----2---4--------|
D|-------0-----|-----5------------|-----3---------3--|-----2------------|
A|-------------|-3----------------|-2----------------|-0--(0)-----------|
E|-3-----------|------------3-----|------------4-----|---------4--------|
   Q  Q  Q  Q    Q   Q      Q  Q    Q   Q      H       Q   Q   H


  1.                        2.=H
            |-3--| |-3-|
   H       +E  E E E E E     W
e|---------------------0--||-----------------------*|
B|-2-------(2)---0-2-3---o||-2------------------3--*|
G|-----2-------2----------||-----2----------2--(2)-*|
D|-----2------------------||-----2------4--(4)-(4)-*|
A|-0--(0)---2------4-----o||-0--(0)--5-(5)-(5)-(5)-*|
E|------------------------||-----------------------*|
   Q   Q    Q      Q         Q   Q   E  E   E   E
                  |


W - whole; H - half; Q - quarter; E - 8th; S - 16th; T - 32nd; X - 64th; a - acciaccatura
+ - note tied to previous; . - note dotted; .. - note double dotted
Uncapitalized letters represent notes that are staccato (1/2 duration)
Irregular groupings are notated above the duration line
Duration letters will always appear directly above the note/fret number it represents the
duration for.  Duration letters with no fret number below them represent rests.  Multi-
bar rests are notated in the form Wxn, where n is the number of bars to rest for.  Low
melody durations appear below the staff


************************************

| (n)  Ghost note
| h    Hammer-on
| p    Pull-off

************************************


Misc Legend
-----------
 |  - bar
||  - double bar
||o - repeat start
o|| - repeat end
*|  - double bar (ending)
 :  - bar (freetime)
 $  - Segno
 &  - Coda
Tempo markers -  = BPM(8/16=s8/s16), where s8 = swing 8ths, s16 = swing 16ths



Suggest correction
comments
print report bad tab
7 comments total. Showing first comments.
+2 reply
domedeed123 10 Jan 18, 2007 06:13 PM

nice i love this song bueatiful guitar

+4 reply
BaconFrenzy117 10 Jan 16, 2008 05:20 PM

im pretty sure rubber soul didnt come out in 2003...

0 reply
froglog09 16 Feb 08, 2008 09:01 PM

pretty average

guest
You may want to rate the tab now too:
select rating
Wanna post a correction for this tab? Suggest correction