Oops, an error
Loading. Please wait.

Money Thats What I Want Bass Tab

version 2
version 2

Whole song

Interactive

19,120 views 36 this week
3 commentsread comments
1 2 3 4 5
excellent!
x 12
add to favorites
launch autoscroll
font size
0
reset
guitar tuner
Tab Pro tools
  • play this tab
  • loop segment
  • change instrument
  • show fretboard
  • metronome
×
Best way to learn
"Money Thats What I Want"
Autoscroll
slow
fast
+/-
esc
set tempo
stop
Contributor
Money (That's What I Want)
The Beatles
Written by Janie Bradford and Berry Gordy; released on "With The Beatles" album.

A good rock and roll song again.

Intro:
G|------- ------- ------- -------|------- ------- ------- -------|
D|-------------------------------|-------------------------------|
A|-------------------------------|-------------------------------|
E|-------------------------------|-------------------------------|



G|------- ------- ------- -------|------- ------- ------- -------|
D|--------5---6---7-------5------|5-------5---7-------5----------|
A|7---7-----------------------7--|----7-------------------7------|
E|-------------------------------|-------------------------------|



G|------- ------- ------- -------|------- ------- ------- -------|
D|9---9---9---9---9---9---9---9--|7---7---7---7---7---7---7h9----|
A|-------------------------------|-------------------------------|
E|-------------------------------|-------------------------------|



G|------- ------- ------- -------|------- ------- ------- 7---9--|
D|--------5---6---7-------5------|----9---9---9---9---9----------|
A|7---7-----------------------7--|-------------------------------|
E|-------------------------------|-------------------------------|


Verse:
G|------- ------- ------- -------|------- ------- ------- -------|
D|-------------------------------|-------------------------------|
A|7------------------------------|-------------------------------|
E|-------------------------------|-------------------------------|
          The best    things  life    are     free,
                          in

G|------- ------- ------- -------|------- ------- ------- -------|
D|-------------------------------|--------------------9---7---5--|
A|7------------------------------|-------------------------------|
E|-------------------------------|-------------------------------|
      but you can keep    for the birds and   bees    Now give me
                      them

G|------- ------- ------- -------|------- ------- ------- -------|
D|7---7---7---7---7---7---7---7--|7---7---7---7---7---9---7---5--|
A|-------------------------------|-------------------------------|
E|-------------------------------|-------------------------------|
  mo          -           ney                         that's what I
          that's                  what I      want

G|------- ------- ------- -------|------- ------- ------- -------|
D|-------------------------------|------------------------5---7--|
A|7---7---7---7---7---7---7---7--|7---7---7---7---7---7----------|
E|-------------------------------|-------------------------------|
  want                                                That's what I
          that's                  what I      want

G|------- ------- ------- -------|------- ------- ------- -------|
D|9---9---9---9---9---9---9---9--|7---7---7---7---7---9---7---5--|
A|-------------------------------|-------------------------------|
E|-------------------------------|-------------------------------|
  want,                                       yeah,
          that's                  what I      want

G|------- ------- ------- -------|------- ------- ------- ----9--|
D|-------------------------------|----9---9---9---9---9---9------|
A|7---7---7---7---7---7---7---7--|7------------------------------|
E|-------------------------------|-------------------------------|
          that's  what I      want

Verse:
G|------- ------- ------- -------|------- ------- ------- -------|
D|-------------------------------|-------------------------------|
A|7------------------------------|-------------------------------|
E|-------------------------------|-------------------------------|
          Your    loving  gives   me  a       thrill,


G|------- ------- ------- -------|------- ------- ------- -------|
D|-------------------------------|-------------------------------|
A|7------------------------------|-------------------------------|
E|-------------------------------|-------------------------------|
      but your    loving  don't   pay my      bills   Now give me


G|------- ------- ------- -------|------- ------- ------- -------|
D|7---7---7---7---7---7---7---7--|7---7---7---7---7---9---7---5--|
A|-------------------------------|-------------------------------|
E|-------------------------------|-------------------------------|
  mo          -           ney                         that's what I
          that's                  what I      want

G|------- ------- ------- -------|------- ------- ------- -------|
D|-------------------------------|------------------------5---7--|
A|7---7---7---7---7---7---7---7--|7---7---7---7---7---7----------|
E|-------------------------------|-------------------------------|
  want                                                That's what I
          that's                  what I      want

G|------- ------- ------- -------|------- ------- ------- -------|
D|9---9---9---9---9---9---9---9--|7---7---7---7---7---7---7---9--|
A|-------------------------------|-------------------------------|
E|-------------------------------|-------------------------------|
  want,                                       yeah,
          that's                  what I      want

G|------- ------- ------- -------|------- ------- ------- ----9--|
D|-------------------------------|----9---9---9---9---9---9------|
A|7---7---7---7---7---7---7---7--|7------------------------------|
E|-------------------------------|-------------------------------|
          that's  what I      want

Verse:
G|------- ------- ------- -------|------- ------- ------- -------|
D|-------------------------------|--------------------7---7---7--|
A|7------------------------------|-------------------------------|
E|-------------------------------|-------------------------------|
          Money don't get every - thing, it's true,


G|------- ------- ------- -------|------- ------- ------- -------|
D|-------------------------------|--------------------9---7---5--|
A|7------------------------------|-------------------------------|
E|-------------------------------|-------------------------------|
          what it don't get,  I       can't   use     Now give me


G|------- ------- ------- -------|------- ------- ------- -------|
D|7---7---7---7---7---7---7---7--|7---7---7---7---7---9---7---5--|
A|-------------------------------|-------------------------------|
E|-------------------------------|-------------------------------|
  mo          -           ney                         that's what I
          that's                  what I      want

G|------- ------- ------- -------|------- ------- ------- -------|
D|-------------------------------|------------------------5---7--|
A|7-------7---7---7-------7---7--|7-------7---7---7---7----------|
E|-------------------------------|-------------------------------|
  want                                                That's what I
          that's                  what I      want

G|------- ------- ------- -------|------- ------- ------- -------|
D|9---9---9---9---9---9---9---9--|7---7---7---7---7---7---7---7--|
A|-------------------------------|-------------------------------|
E|-------------------------------|-------------------------------|
  want,                                       yeah,
          that's                  what I      want

G|------- ------- ------- -------|------- ------- ------- -------|
D|-------------------------------|----9---9---9---9---9---9---9--|
A|7-------7---7---7---7---7---7--|7------------------------------|
E|-------------------------------|-------------------------------|
          that's  what I      want

Break (solo):
G|------- ------- ------- -------|------- ------- ------- -------|
D|--------5---6---7-------5------|5-------5---7-------5----------|
A|7---7-----------------------7--|----7-------------------7------|
E|-------------------------------|-------------------------------|



G|------- ------- ------- -------|------- ------- ------- -------|
D|--------5---6---7-------5------|5-------5---7-------5----------|
A|7---7-----------------------7--|----7-------------------7------|
E|-------------------------------|-------------------------------|



G|------- ------- ------- -------|------- ------- ------- -------|
D|9---9---9---9---9---9---9---9--|7---7---7---7---7---7---7---9--|
A|-------------------------------|-------------------------------|
E|-------------------------------|-------------------------------|



G|------- ------- ------- -------|------- ------- ------- 7---9--|
D|--------5---6---7-------5------|----9---9---9---9---9----------|
A|7---7-----------------------7--|-------------------------------|
E|-------------------------------|-------------------------------|


Verse:
G|------- ------- ------- -------|------- ------- ------- ----7--|
D|-------------------------------|--------------------7---9------|
A|7------------------------------|-------------------------------|
E|-------------------------------|-------------------------------|
          Money don't get every - thing, it's true,


G|------- ------- ------- -------|------- ------- ------- -------|
D|-------------------------------|-------------------------------|
A|7------------------------------|-------------------------------|
E|-------------------------------|-------------------------------|
          what it don't get,  I       can't   use     Now give me


G|------- ------- ------- -------|------- ------- ------- -------|
D|7---7---7---7---7---7---7---7--|7---7---7---7---7---7---7---9--|
A|-------------------------------|-------------------------------|
E|-------------------------------|-------------------------------|
  mo          -           ney                         that's what I
          that's                  what I      want

G|------- ------- ------- -------|------- ------- ------- -------|
D|-------------------------------|------------------------5---7--|
A|7-------7---7---7-------7---7--|7---7---7---7---7---7----------|
E|-------------------------------|-------------------------------|
  want                                                That's what I
          that's                  what I      want

G|------- ------- ------- -------|------- ------- ------- -------|
D|9---9---9---9---9---9---9---9--|7---7---7---7---7---7---7---9--|
A|-------------------------------|-------------------------------|
E|-------------------------------|-------------------------------|
  want,                                       yeah,
          that's                  what I      want

G|------- ------- ------- -------|------- ------- ------- -------|
D|-------------------------------|----9---9---9---9---9---9---9--|
A|7-------7---7---7-------7---7--|7------------------------------|
E|-------------------------------|-------------------------------|
          that's  what I      want    Well,           now give me

Refrain:
G|------- ------- ------- -------|------- ------- ------- -------|
D|--------5-------7-------5------|--------5-------7-------7p5----|
A|7---7-------7---------------7--|7---7-------7---------------7--|
E|-------------------------------|-------------------------------|
  money!                                              a   lot of
          that's                  what I      want

G|------- ------- ------- -------|------- ------- ------- -------|
D|--------5-------7-------5------|-----------/7-----------5------|
A|7---7-------7---------------7--|7-------7----------------------|
E|-------------------------------|-------------------------------|
  money                           Wow,        yeah,   I wanna be
          that's                  what I      want

G|------- ------- ------- -------|------- ------- ------- -------|
D|7---7---7---7---7---7---7---7--|7---7---7---7---7---9---7---5--|
A|-------------------------------|-------------------------------|
E|-------------------------------|-------------------------------|
  free!                                       oh,
          that's                  what I      want

G|------- ------- ------- -------|------- ------- ------- -------|
D|-------------------------------|------------------------5---7--|
A|7-------7-------7-------7---7--|7-------7---7---7---7----------|
E|-------------------------------|-------------------------------|
  lot of  money!                                      That's what I
          that's                  what I      want

G|------- ------- ------- -------|------- ------- ------- -------|
D|9-------9---9--/9-------9---9--|7-------7---7---7-------7------|
A|-------------------------------|-------------------------------|
E|-------------------------------|-------------------------------|
  want,                                       yeah,
          that's                  what I      want

G|------- ------- ------- -------|------- ------- ------- -------|
D|-------------------------------|9---9---9---9---9---9---9---9--|
A|7---7---7---7---7---7---7---7--|-------------------------------|
E|-------------------------------|-------------------------------|
          that's  what I      want    Well,           now give me

Refrain:
G|------- ------- ------- -------|------- ------- ------- 7---9--|
D|-------------------------------|--------------------9----------|
A|7---7---7---7---7---7---7---7--|7---7---7---7---7--------------|
E|-------------------------------|-------------------------------|
  money!                                              a   lot of
          that's                  what I      want

G|------- ------- ------- -------|------- ------- ------- -------|
D|-------------------------------|--------------------5---7---7--|
A|7---7---7---7---7---7---7---7--|7---7---7---7---7--------------|
E|-------------------------------|-------------------------------|
  money                           Wow,        yeah, you know I need
          that's                  what I      want

G|------- ------- ------- -------|------- ------- ------- -------|
D|7---7---7---7---7---7---7---7--|7---7---7---7---7---7---7--/9--|
A|-------------------------------|-------------------------------|
E|-------------------------------|-------------------------------|
  money!                                      oh,     now give me
          that's                  what I      want

G|------- ------- ------- -------|------- ------- ------- -------|
D|-------------------------------|-------------------------------|
A|7---7---7---7---7---7---7------|7---7---7---7---7-------5---7--|
E|----------------------------7--|--------------------7----------|
  money,  that's                  what I      want    That's what I
          that's                  what I      want

G|------- ------- ------- -------|------- ------- ------- -------|
D|-------------------------------|-------------------------------|
A|-------------------------------|-------------------------------|
E|7---7---7---7---7---7---7---7--|5---5---5---5---5---5---5---5--|
  want,                                       yeah,
          that's                  what I      want

G|------- ------- ------- -------|------- ------- ------- -------|
D|--------5-------7-------5------|-------------------------------|
A|7---7-------7------------------|7---------------7--------------|
E|-------------------------------|-------------------------------|
          that's  what I      want

Please e-mail me for any corrections.
comments
print report bad tab
3 comments total.
0 reply
68lpjr wrote on May 11 2010, 09:53 am

5 *'s, very accurate!!!

0 reply
trevor is ... wrote on July 12 2011, 11:18 pm

just played it on my bass, it sounds purfect

0 reply
jwilder wrote on June 7 2014, 05:19 pm

AWESOME! SOUNDS GREAT!

I want to post or [tab]
guest
You may want to rate the tab now too:
select rating
Please do not post tabs as comments. Select "correction" instead!