Oops, an error
Loading. Please wait.
We have an official Money Thats What I Want tab made by UG professional guitarists. Check out the tab »
×
34 views 3 this week
no commentswrite comment
1 2 3 4 5
3 more votes to show rating
add to favorites
×
Save as Personal and add changes to this tab that will be seen only by you. Learn more ›
×
You can save this tab as Personal to edit and correct it or add notes. All changes will be seen only by you. Learn more »
launch autoscroll
font size
0
reset
guitar tuner
edit
Autoscroll
slow
fast
+/-
esc
set tempo
stop
Money
This version by The Beatles is taken from their 2nd album With The Beatles.
Bass performance Paul McCartney. Tab by bass50611. Welcome to my version
Of this classic Beatles track.  More of a different approach to other tabs.

Intro:
G|---------------------|--------------------------------------------|
D|----OPENING RIFF-----|--------------------------------------------|
A|-GUITAR & DRUMS ONLY-|--------------------------------------------|
E|---------------------|-0--0--3--4--5---3--0--3--0--3--5---3--3--3-|

                                                                   (Break)
G|------------------------------------------------------------------------|
D|------------------------------------------------------------------------|
A|-2-2-2-2-2-2-2-2--------------------------------------2-2-2-2-2-2-4-5-7-|
E|----------------5-5-5-5-5-5-5-5--0--0--3--4--5---3--0-------------------|

Verse 1:
  The best things In life are free...
G|-----------------------------------------|
D|-----------------------------------------|
A|---------------------------------------7-|
E|---------------------------------5-5-5---|

  But you can keep them for the Birds and Bees...Now give me...
G|-------------------------------------------------------------|
D|-------------------------------------------------------------|
A|-------------------------------------------------------------|
E|-------------------------------------------------------------|

Chorus:
G|-----------------------------------------------------------------------|
D|-----------------------------------------------------------------------|
A|-----------------------------------------------------------------------|
E|-5-5-5-5-5-5-5-5---5-5-5-5-5-5-5-5---0-0-0-0-0-0-0-0---0-0-0-0-0-0-4-5-|

                                                                   (Break)
G|----------------------------------------------------------------------|
D|----------------------------------------------------------------------|
A|------------------------------------7-7-7-7-7-7-7-7-------------4-5-7-|
E|-7-7-7-7-7-7-7-7---5-5-5-5-5-5-5-5------------------7-7-7-7-7-7-------|

Verse 2:
  Your loving gives me a thrill.......But your loving don’t pay my bills
G|----------------------------------------------------------------------|
D|----------------------------------------------------------------------|
A|----------------------------------7-----------------------------------|
E|----------------------------5-5-5-------------------------------------|

  Now give me...
G|-------------|
D|-------------|
A|-------------|
E|-------------|

Chorus:
G|-----------------------------------------------------------------------|
D|-----------------------------------------------------------------------|
A|-----------------------------------------------------------------------|
E|-5-5-5-5-5-5-5-5---5-5-5-5-5-5-5-5---0-0-0-0-0-0-0-0---0-0-0-0-0-0-4-5-|

                                                                   (Break)
G|----------------------------------------------------------------------|
D|----------------------------------------------------------------------|
A|------------------------------------7-7-7-7-7-7-7-7-------------4-5-7-|
E|-7-7-7-7-7-7-7-7---5-5-5-5-5-5-5-5------------------7-7-7-7-7-7-------|

Verse 3:
  Money don’t get everything its true........What it don’t get I can’t use
G|-----------------------------------------------------------------------|
D|-----------------------------------------------------------------------|
A|-----------------------------------------7-----------------------------|
E|-----------------------------------5-5-5-------------------------------|

  Now give me...
G|-------------|
D|-------------|
A|-------------|
E|-------------|

Chorus:
G|-----------------------------------------------------------------------|
D|-----------------------------------------------------------------------|
A|-----------------------------------------------------------------------|
E|-5-5-5-5-5-5-5-5---5-5-5-5-5-5-5-5---0-0-0-0-0-0-0-0---0-0-0-0-0-0-4-5-|

G|--------------------------------------------------------------------|
D|--------------------------------------------------------------------|
A|------------------------------------7-7-7-7-7-7-7-7-----------------|
E|-7-7-7-7-7-7-7-7---5-5-5-5-5-5-5-5------------------7-7-7-7-7-7-7-7-|

Solo:                                     (Play This Bit x2)
G|--------------------------------------------|
D|--------------------------------------------|
A|--------------------------------------------|
E|-0--0--3--4--5---3--0--3--0--3--5---3--3--3-|

                                                                   (Break)
G|------------------------------------------------------------------------|
D|------------------------------------------------------------------------|
A|-2-2-2-2-2-2-2-2--------------------------------------2-2-2-2-2-2-4-5-7-|
E|----------------5-5-5-5-5-5-5-5--0--0--3--4--5---3--0-------------------|

Verse 4:
  Money don’t get everything its true........What it don’t get I can’t use
G|-----------------------------------------------------------------------|
D|-----------------------------------------------------------------------|
A|-----------------------------------------7-----------------------------|
E|-----------------------------------5-5-5-------------------------------|

  Now give me...
G|-------------|
D|-------------|
A|-------------|
E|-------------|

Chorus:
G|-----------------------------------------------------------------------|
D|-----------------------------------------------------------------------|
A|-----------------------------------------------------------------------|
E|-5-5-5-5-5-5-5-5---5-5-5-5-5-5-5-5---0-0-0-0-0-0-0-0---0-0-0-0-0-0-4-5-|

G|--------------------------------------------------------------------|
D|--------------------------------------------------------------------|
A|------------------------------------7-7-7-7-7-7-7-7-----------------|
E|-7-7-7-7-7-7-7-7---5-5-5-5-5-5-5-5------------------7-7-7-7-7-7-7-7-|

Chorus 2:                           (Play This Bit x2)
G|--------------------------------------------|
D|--------------------------------------------|
A|--------------------------------------------|
E|-0--0--3--4--5---3--0--3--0--3--5---3--3--3-|

G|-----------------------------------------------------------------------|
D|-----------------------------------------------------------------------|
A|-----------------------------------------------------------------------|
E|-5-5-5-5-5-5-5-5---5-5-5-5-5-5-5-5---0-0-0-0-0-0-0-0---0-0-0-0-0-0-0-0-|

G|--------------------------------------------------------------------|
D|--------------------------------------------------------------------|
A|------------------------------------7-7-7-7-7-7-7-7-----------------|
E|-7-7-7-7-7-7-7-7---5-5-5-5-5-5-5-5------------------7-7-7-7-7-7-7-7-|

Outro:                       (Play This Bit x2)
G|-----------------------------------|
D|-----------------------------------|
A|-----------------------------------|
E|-0-0-0-0-0-0-0-0---0-0-0-0-0-0-2-4-|

G|-----------------------------------------------------------------------|
D|-----------------------------------------------------------------------|
A|-----------------------------------------------------------------------|
E|-5-5-5-5-5-5-5-5---5-5-5-5-5-5-5-5---0-0-0-0-0-0-0-0---0-0-0-0-0-0-4-5-|

                                                                (End)
G|-----------------------------------------------------------------|
D|-----------------------------------------------------------------|
A|-----------------------------------------------------------------|
E|-7-7-7-7-7-7-7-7---5-5-5-5-5-5-5-5---0--0--0---5--3--0---0--0--0-|


            
            
Suggest correction
Creating personal tab
Creating personal tab
You can edit any tab online and save it as your Personal.

You can edit, replace or remove any tab part or add personal notes – all changes will be seen only by you.

Personal tabs can be accessed anytime from any device, even offline.
Learn more »
Give kudos to tab author, rate the tab!
1 2 3 4 5
comments
print report bad tab
guest
You may want to rate the tab now too:
select rating
Wanna post a correction for this tab? Suggest correction