Oops, an error
Loading. Please wait.

My Bonnie solo tab

version 1
version 1

Solo

Interactive

12,175 views 9 this week
3 commentsread comments
1 2 3 4 5
x 5
add to favorites
×
Save as Personal and add changes to this tab that will be seen only by you. Learn more ›
×
You can save this tab as Personal to edit and correct it or add notes. All changes will be seen only by you. Learn more »
launch autoscroll
font size
0
reset
how to read this tab
guitar tuner
backing track
0:00
0:00
edit
Autoscroll
slow
fast
+/-
esc
set tempo
stop
Author
---------------------------------------------------------------

  THE BEATLES W TONY SHERIDAN - MY BONNIE (Trad./Arr. Sheridan) 
                Taken from THE EARLY TAPES OF THE BEATLES. 
                First Released in 1961 by Polydor International 
                GmbH, Hamburg. 

---------------------------------------------------------------

  Tabbed by:PJVillanueva


                            GUITAR SOLO


  (STANDARD TUNING)


  First two introductory measures:
 
  01:18
  C                               G
                                       
e|----11- 11--11- 11--11- 11--11-|11--11- 11--11- 11--11- 11--11-|
B|----10--10--10--10--10--10--10-|10--10--10--10--10--10--10--10-|
G|-------------------------------|-------------------------------|
D|-------------------------------|-------------------------------|
A|-------------------------------|-------------------------------|
E|-------------------------------|-------------------------------|

  Solo (24 MEASURES)

  01:21
  C
  1                               2
e|11----- 11----- 8------ -------|------- ------- ------- -------|
B|10B11---10B11-------11--10--8--|--/-8--------------------------|
G|-------------------------------|1012----11--10--8--------H-P---|
D|-------------------------------|--------------------10--810-8--|
A|-------------------------------|-------------------------------|
E|-------------------------------|-------------------------------|


  3                               4
e|------- ------- ------- -------|------- ------- ------- -------|
B|--------------------8-------8--|---------H-P-------------------|
G|--------8---10--11------11-----|11--10--810-8---8-------8------|
D|8---10-------------------------|-------------10-----10------10-|
A|-------------------------------|-------------------------------|
E|-------------------------------|-------------------------------|


  F
  5                               6
e|------- ------- ------- -------|------- ------- ------- -------|
B|10------8---------------8------|--B--8------8------------------|
G|10-B-11---------10-B-11--------|1011------------11/10-8--------|
D|-------------------------------|------------------------10--8--|
A|-------------------------------|-------------------------------|
E|-------------------------------|-------------------------------|


  C
  7                               8
e|------- ------- ------- -------|------- ------- ----8-- ----8--|
B|-------------------------------|------------8-----------11-----|
G|----------------8-------9------|10------11---------------------|
D|10------8---10------10------10-|----10-------------------------|
A|----10-------------------------|-------------------------------|
E|-------------------------------|-------------------------------|


  G                               F
  9                               10
e|11B12-- 8------ ------- -------|------- ------- ------- -------|
B|--------8-------10--8----------|----13-------------------------|
G|----------------------------10-B12------10--8---10--8----------|
D|-------------------------------|------------------------10--8--|
A|-------------------------------|-------------------------------|
E|-------------------------------|-------------------------------|

  01:34
  C                               G
  11                              12
e|------/ 8---8-- 8---8-- 8---8--|8---8-- 8---8-- 8---8-- 8---8--|
B|-------------------------------|-------------------------------|
G|-------------------------------|-------------------------------|
D|10-----------------------------|-------------------------------|
A|-------------------------------|-------------------------------|
E|-------------------------------|-------------------------------|

  01:37
  C
  13                              14
e|------- 8------ 11----- 8------|--B-8-- ----11- ----8-- ----8--|
B|11-B-12------------------------|1112---------------------------|
G|-------------------------------|-------------------------------|
D|-------------------------------|-------------------------------|
A|-------------------------------|-------------------------------|
E|-------------------------------|-------------------------------|



  15                              16
e|------- 8---8-- 11----- 8------|--B-8-- 8---11- ----8-- 11--8--|
B|11-B-12------------------------|1112---------------------------|
G|-------------------------------|-------------------------------|
D|-------------------------------|-------------------------------|
A|-------------------------------|-------------------------------|
E|-------------------------------|-------------------------------|


  F
  17                              18
e|13-B-15 13-B-15 11----- -------|------- 15----- 15--15- ----15-|
B|--------------------13--x---13-|13--------------------------13-|
G|-------------------------------|-------------------------------|
D|-------------------------------|-------------------------------|
A|-------------------------------|-------------------------------|
E|-------------------------------|-------------------------------|


  C
  19                              20
e|----15- 14--14- 13---x- 11--11-|------- ------- --H-P-- -------|
B|--------13------13--11---------|13--13--13--13--111311----H-P--|
G|-------------------------------|---------------------12-101210-|
D|-------------------------------|-----------------------------13|
A|-------------------------------|-------------------------------|
E|-------------------------------|-------------------------------|

  01:47
  G                               F
  21                              22
e|------- ------- ------- -------|------- ------- ------- -------|
B|---------H-P----------------8--|----8--------------------------|
G|12--10--810-8---8---10--11-----|11------11--10--8--------------|
D|-------------10----------------|--------------------10--7---10-|
A|-------------------------------|-------------------------------|
E|-------------------------------|-------------------------------|

  01:50
  C                               G7
  23                              24
e|------- ------- ------- -----/-|3---3-- 3---3-- 3---3-- 3------|
B|-----------------------------/-|6---6---6---6---6---6---6------|
G|-----------------------------/-|4---4---4---4---4---4---4------|
D|10---------------------------/-|3---3---3---3---3---3---3------|
A|-----------------------------/-|5---5---5---5---5---5---5------|
E|-----------------------------/-|3---3---3---3---3---3---3------| 






        B  Bend
        R  Release
        /  Slide up
        \  Slide down
        H  Hammer-on
        P  Pull-off
        ~  Vibrato
        +  Harmonic
        x  Mute note
        .  Play note like a dot in standard notation
        ^  Ties two notes together
        (. Pause



Suggest correction
Creating personal tab
Creating personal tab
You can edit any tab online and save it as your Personal.

You can edit, replace or remove any tab part or add personal notes – all changes will be seen only by you.

Personal tabs can be accessed anytime from any device, even offline.
Learn more »
comments
print report bad tab
3 comments total.
0 reply
Dairybeat 1,734 Oct 26, 2011 08:10 AM

It's: Tony Sheridan (lead vocals) with The Beatles.

0 reply
Blade55 19 Jan 18, 2015 02:33 AM

Great! Thanks for showing!

0 reply
wellguppa 10 Feb 12, 2016 06:15 AM

also Sheridan played the solo :)

guest
You may want to rate the tab now too:
select rating
Wanna post a correction for this tab? Suggest correction