Oops, an error
Loading. Please wait.
We have an official Norwegian Wood tab made by UG professional guitarists. Check out the tab »
×
1,885 views 36 this week
4 commentsread comments
1 2 3 4 5
x 9
add to favorites
×
Save as Personal and add changes to this tab that will be seen only by you. Learn more ›
×
You can save this tab as Personal to edit and correct it or add notes. All changes will be seen only by you. Learn more »
launch autoscroll
font size
0
reset
transpose
0
reset
simplify chords
display chords
guitar tuner
backing track
0:00
0:00
edit
Autoscroll
slow
fast
+/-
esc
set tempo
stop
Strumming Is this strumming pattern correct? Yes No
Whole Song 177 bpm
1
&
2
&
3
&
Listen
[Intro]

D C G D
    
   D
   1 + 2 + 3   1 + 2 + 3   1 + 2 + 3   1 + 2 + 3 
A|-0---------|-0h2-0-----|-----------|------------|
E|-----------|---------3-|-2---------|-0---3---2--|
C|-----------|-----------|-----------|------------|
G|-----------|-----------|-----------|------------|
               C       G   D
   1 + 2 + 3   1 + 2 + 3   1 + 2 + 3   1 + 2 + 3 
A|-----------|-----------|-----------|------------|
E|-----------|-----3-----|-----------|------------|
C|-2---------|-----------|-----------|------------|
G|-----------|-3h4-----4-|-2---------|------------|
                         

[Verse]

D
I once had a girl, or should I say
C        G   D
she once had me.

D
She showed me her room, isn't it good?
C     G    D
Norwegian wood.
 
[Chorus]  

    Dm                                  G
She asked my to stay and told me to sit anywhere,
   Dm                                           Em     A A7
So I looked around and I noticed there wasn't a chair.
 
[Verse]
D
I sat on a rug, biding my time,
C        G   D
drinking her wine.

D
We talked until two, and then she said,
C         G   D
It's time for bed.

   D         
   1 + 2 + 3   1 + 2 + 3   1 + 2 + 3   1 + 2 + 3 
A|-0---------|-0h2-0----|------------|------------|
E|-----------|---------3|--2---------|-0---3---2--|
C|-----------|----------|------------|------------|
G|-----------|----------|------------|------------|
               C       G   D
   1 + 2 + 3   1 + 2 + 3   1 + 2 + 3   1 + 2 + 3 
A|-----------|-----------|-----------|------------|
E|-----------|-----3-----|-----------|------------|
C|-2---------|-----------|-----------|------------|
G|-----------|-3h4-----4-|-2---------|------------|
               

[Chorus]
    Dm                                               G
She told me she worked in the morning and started to laugh,
  Dm                                                 Em    A A7
I told her I didn't, and crawled off to sleep in the bath.

 [Verse]
D                              C         G   D
And when I awoke, I was alone, this bird has flown.
D
So I lit a fire, isn't it good?
C    G    D    
Norwegian wood.

[Outro]

   D
   1 + 2 + 3   1 + 2 + 3   1 + 2 + 3   1 + 2 + 3 
A|-0---------|-0h2-0----|------------|------------|
E|-----------|---------3|--2---------|-0---3---2--|
C|-----------|----------|------------|------------|
G|-----------|----------|------------|------------|
               C       G   D
   1 + 2 + 3   1 + 2 + 3   1 + 2 + 3   1 + 2 + 3 
A|-----------|-----------|-----------|------------|
E|-----------|-----3-----|-----------|------------|
C|-2---------|-----------|-----------|------------|
G|-----------|-3h4-----4-|-2---------|------------|
              













            
            
Suggest correction
Creating personal tab
Creating personal tab
You can edit any tab online and save it as your Personal.

You can edit, replace or remove any tab part or add personal notes – all changes will be seen only by you.

Personal tabs can be accessed anytime from any device, even offline.
Learn more »
comments
print report bad tab
4 comments total. Showing first comments.
0 reply
Mckenna_623 45 May 10, 2016 10:17 AM

didn't like this contribution

0 reply
RockyRaccoon_ 68 May 10, 2016 10:20 AM

After October 20th, don't rate any of my tabs, I'm warning you with peace and love

-2 reply
eckron521 10 May 10, 2016 10:22 AM

If this tab was a boomerang.....it wouldn't come back.

guest
You may want to rate the tab now too:
select rating
Wanna post a correction for this tab? Suggest correction