Oops, an error
Loading. Please wait.

Not A Second Time bass

version 1
version 1

Whole song

Interactive

2,265 views 9 this week
no commentswrite comment
1 2 3 4 5
x 3
add to favorites
×
Save as Personal and add changes to this tab that will be seen only by you. Learn more ›
×
You can save this tab as Personal to edit and correct it or add notes. All changes will be seen only by you. Learn more »
launch autoscroll
font size
0
reset
guitar tuner
edit
Autoscroll
slow
fast
+/-
esc
set tempo
stop
Author
Not A Second Time
The Beatles
Written by John Lennon and Paul McCartney; released on the album "With The 
Beatles".

"Not A Second Time" was mainly a John Lennon composition, and their first 
song to feature a piano solo (while not their first song with a piano). The 
rest of the arrangement consists of two rhythm guitars (one acoustic and one 
electric), bass, drums and John's double-tracked lead vocal. The piano is 
played by George Martin. Paul's bass is hard to hear in places, and some 
sources even (incorrectly) claim that there's no bass guitar used in the song 
at all.

Verse:
G|------- ------- ------- -------|------- ------- ------- -------|
D|5-----------5---5--------------|-------------------------------|
A|-------------------------------|7-----------7---7-------7-/-5--|
E|-------------------------------|-------------------------------|
          You     know,   made me cry,
                      you

G|------- ------- ------- -------|------- ------- ------- -------|
D|5-------5-------5---5-------5--|-------------------------------|
A|-------------------------------|7-------7-------7---7----------|
E|-------------------------------|-------------------------------|
      I   see no  use in  wonde-  why                     I
                              ring

G|------- ------- ------- -------|------- ------- ------- -------|
D|----------------7---7----------|5-----------5---5--------------|
A|5-----------------------5---5--|-------------------------------|
E|-------------------------------|-------------------------------|
  cried                       for you.


G|------- ------- ------- -------|
D|------------4---7--------------|
A|5-------------------5---7---7--|
E|-------------------------------|


Verse:
G|------- ------- ------- -------|------- ------- ------- -------|
D|5------------------------------|--------------------5----------|
A|----------------5---5-------5--|7-----------5---7-------7---5--|
E|------------7------------------|-------------------------------|
          And     now you changed mind,
                              your

G|------- ------- ------- -------|------- ------- ------- -------|
D|5------------------------------|--------------------5----------|
A|----------------5---5-------5--|7-----------5---7-------7------|
E|------------7-----------7------|-------------------------------|
      I   see no  reason  to  change                      I
                                  mine,

G|------- ------- ------- -------|------- ------- ------- -------|
D|------------4---7---7---4------|7-------7-------7-------7---7--|
A|5---------------------------5--|-------------------------------|
E|-------------------------------|-------------------------------|
  cried,                     it's through,


G|------- ------- ------- -------|
D|-------------------------------|
A|5-----------5---5--------------|
E|-------------------------------|
  oh!

Refrain:
G|------- ------- ------- -------|------- ------- ------- -------|
D|7---7-------7---7---7-------7--|9---9-------9---9---9----------|
A|-------------------------------|-------------------------------|
E|-------------------------------|-------------------------------|
          You're  giving  me  the same old    line,


G|------- ------- ------- -------|------- ------- ------- -------|
D|5---------------5--------------|--------------------5----------|
A|-------------------------------|7-----------5---7-------7------|
E|-------------------------------|-------------------------------|
          I'm     wonde - ring    why.


G|------- ------- ------- -------|------- ------- ------- -------|
D|7---7-------7---7---7-------7--|7---7-------7---7---7-------7--|
A|-------------------------------|-------------------------------|
E|-------------------------------|-------------------------------|
              You hurt me then,               you're  a - gain,
                                                  back

G|------- ------- ------- -------|------- ------- ------- -------|
D|9---9---9---9---9---9---9---9--|7------------------------------|
A|-------------------------------|----5-----------7---5---5---5--|
E|-------------------------------|-------------------------------|
  no,                     no,     no,             not a   se- cond


G|------- ------- ------- -------|------- ------- ------- -------|
D|--------------------5----------|-------------------------------|
A|7---7---7---5---7-------7---5--|7------------------------------|
E|-------------------------------|-------------------------------|
  time.

Refrain (solo):
G|------- ------- ------- -------|------- ------- ------- -------|
D|7---7---7---7---7---7---7---7--|-------------------------------|
A|-------------------------------|5---5---5---5---5---5---5---5--|
E|-------------------------------|-------------------------------|



G|------- ------- ------- -------|------- ------- ------- -------|
D|5-----------5-----------5---5--|-------------------------------|
A|----------------5--------------|7-----------7---7--------------|
E|-------------------------------|-------------------------------|



G|------- ------- ------- -------|------- ------- ------- -------|
D|7---7---7---7---7---7---7---7--|7---7---7---7---7---7---7---7--|
A|-------------------------------|-------------------------------|
E|-------------------------------|-------------------------------|



G|------- ------- ------- -------|------- ------- ------- -------|
D|9---9---9---9---9---9---9---9--|7------------------------------|
A|-------------------------------|----5---5---5---5---5---5---5--|
E|-------------------------------|-------------------------------|



G|------- ------- ------- -------|------- ------- ------- -------|
D|--------------------5----------|-------------------------------|
A|7-----------5---7-------7---5--|7------------------------------|
E|-------------------------------|-------------------------------|


Verse:
G|------- ------- ------- -------|------- ------- ------- -------|
D|5---5---5---5-----------5---4--|-------------------------------|
A|----------------5--------------|7-------7-------7---7---5------|
E|-------------------------------|-------------------------------|
          You     know,   made me cry,
                      you

G|------- ------- ------- -------|------- ------- ------- -------|
D|5-------5---------------5---4--|-------------------------------|
A|----------------5---5----------|7-------7-------7-------7------|
E|-------------------------------|-------------------------------|
      I   see no  use in  wonde-  why                     I
                              ring

G|------- ------- ------- -------|------- ------- ------- -------|
D|----------------4---7----------|5-----------------------5------|
A|5-------5---------------5------|----------------5--------------|
E|-------------------------------|-------------------------------|
  cried                       for you,


G|------- ------- ------- -------|
D|------------4---7--------------|
A|5-------------------5---7---7--|
E|-------------------------------|
                          yeah!

Verse:
G|------- ------- ------- -------|------- ------- ------- -------|
D|5-------5----------------------|--------------------5----------|
A|----------------5---5-------5--|7-------7---5---7-------7---5--|
E|------------7-----------7------|-------------------------------|
          And     now you changed mind,
                              your

G|------- ------- ------- -------|------- ------- ------- -------|
D|5-------5----------------------|--------------------5----------|
A|----------------5---5----------|7-------7---5---7-------7------|
E|------------7-----------7------|-------------------------------|
      I   see no  reason  to  change                      I
                                  mine,

G|------- ------- ------- -------|------- ------- ------- -------|
D|------------4---7---7---4------|7-------7---7---7-------7------|
A|5-------5-------------------5--|-------------------------------|
E|-------------------------------|-------------------------------|
  cried,                     it's true,


G|------- ------- ------- -------|
D|------------4---7---7---4------|
A|5---------------------------5--|
E|-------------------------------|
  oh!

Refrain:
G|------- ------- ------- -------|------- ------- ------- -------|
D|7-----------7---7-----------7--|7-/-9-------9---9-----------7--|
A|-------------------------------|-------------------------------|
E|-------------------------------|-------------------------------|
          You're  giving  me  the same old    line,


G|------- ------- ------- -------|------- ------- ------- -------|
D|5-----------------------5---4--|--------------------5----------|
A|----------------5---5----------|7-----------5---7-------7---5--|
E|-------------------------------|-------------------------------|
          I'm     wonde - ring    why.


G|------- ------- ------- -------|------- ------- ------- -------|
D|7-------7---7---5-h-7---7---7--|5-h-7---7---7---5-h-7---7---7/-|
A|-------------------------------|-------------------------------|
E|-------------------------------|-------------------------------|
              You hurt me then,               you're  a - gain,
                                                  back

G|------- ------- ------- -------|------- ------- ------- -------|
D|9---9---9---9---9---9---9---9--|7------------------------------|
A|-------------------------------|----5---5---5---5---5---5---5--|
E|-------------------------------|-------------------------------|
  no,                     no,     no,             not a   se- cond


G|------- ------- ------- -------|------- ------- ------- -------|
D|--------------------5----------|-------------------------------|
A|7---7---7---5---7-------7---5--|7------------------------------|
E|-------------------------------|-------------------------------|
  time.                                           Not a   se- cond

Outro:
G|------- ------- ------- -------|------- ------- ------- -------|
D|5-------5---------------5---4--|--------------------5----------|
A|----------------5---5----------|7-------7---5---7-------7---5--|
E|-------------------------------|-------------------------------|
  time,                                           not a   se- cond...
repeat and fade out...

Please e-mail me for any corrections, or write a comment.
Suggest correction
Creating personal tab
Creating personal tab
You can edit any tab online and save it as your Personal.

You can edit, replace or remove any tab part or add personal notes – all changes will be seen only by you.

Personal tabs can be accessed anytime from any device, even offline.
Learn more »
Give kudos to tab author, rate the tab!
1 2 3 4 5
comments
print report bad tab
guest
You may want to rate the tab now too:
select rating
Wanna post a correction for this tab? Suggest correction