Oops, an error
Loading. Please wait.
We have an official Nowhere Man tab made by UG professional guitarists. Check out the tab »
×
29,642 views 48 this week
no commentswrite comment
1 2 3 4 5
x 16
add to favorites
×
Save as Personal and add changes to this tab that will be seen only by you. Learn more ›
×
You can save this tab as Personal to edit and correct it or add notes. All changes will be seen only by you. Learn more »
launch autoscroll
font size
0
reset
guitar tuner
backing track
0:00
0:00
edit
Autoscroll
slow
fast
+/-
esc
set tempo
stop
Author
Nowhere Man
The Beatles
Written by John Lennon and Paul McCartney; released on "Rubber Soul" album

This song has a strange bassline among the Beatles songs.

Verse:
G|------- ------- ------- -------|------- ------- ------- -------|
D|-------------------------------|-------------------------------|
A|-------------------------------|-------------------------------|
E|-------------------------------|-------------------------------|
  He's    a       real            no  -   where   man,


G|------- ------- ------- -------|------- ------- ------- -------|
D|-------------------------------|-------------------------------|
A|-------------------------------|-------------------------------|
E|-------------------------------|-------------------------------|
  sitting     in          his     no  -   where   land,


G|------- ------- ------- -------|------- ------- ------- -------|
D|7-------6-------------------7--|----7---6----------------------|
A|----------------9---7----------|----------------9---7-------7--|
E|------------------------9------|------------------------8------|
  Ma- king    all         his     no  -   where   plans       for


G|------- ------- ------- -------|------- ------- ------- -------|
D|--------6---6---7---8---9------|--------6---6---7---8---9------|
A|7---7-----------------------7--|7---7--------------------------|
E|-------------------------------|-------------------------------|
  no    -     bo- dy

Verse:
G|------- ------- ------- -------|------- ------- ------- -------|
D|--------6-------7---8---9------|------------------------6---7--|
A|7------------------------------|--------6---6---9---9----------|
E|----------------------------7--|----7--------------------------|
  Doesn't     have        a       point   of  view,


G|------- ------- ------- -------|------- ------- ----6-- -------|
D|7-------6----------------------|--------6---6---9-------9---7--|
A|----------------9---7-------7--|7---7--------------------------|
E|------------------------9------|-------------------------------|
  knows   not     where   he's    go- ing     to,


G|------- ------- ------- -------|------- ------- ------- -------|
D|----7---6-------------------7--|----7---6----------------------|
A|----------------9---7----------|----------------9---7-------7--|
E|------------------------9------|------------------------8------|
  Isn't       he          a   bit     like    you         and


G|------- ------- ------- -------|------- ------- ------- -------|
D|--------6---6---7---8---9------|-------------------------------|
A|7---7-----------------------7--|7-------7-------7---7---7------|
E|-------------------------------|-------------------------------|
  me?                                             Nowhere     man,

Bridge:
G|------- ------- ------- -------|------- ------- ------- -------|
D|6---6-----------6---6-------6--|7---7-----------7---7----------|
A|--------6----------------------|--------7-------------------7--|
E|-------------------------------|-------------------------------|
                      please,     listen,         you don't   know
  Aaaaaaaaaaaaaaaaaaaaaaaaaaaaaaaaa   -   la  -   la  -   la

G|------- ------- ------- -------|------- ------- ------- -------|
D|6---6-----------6---6----------|7---7-----------7---7----------|
A|--------6----------------------|--------7-------------------7--|
E|-------------------------------|-------------------------------|
              what    you're      missing         Nowhere     man,
  Aaaaaaaaaaaaaaaaaaaaaaaaaaaaaaaaa   -   la  -   la  -   la

G|------- ------- ------- -------|------- ------- ------- -------|
D|6---6-----------6---6----------|7------------------------------|
A|--------6-------------------6--|--------9---7---------------7--|
E|-------------------------------|----9-------------------9------|
                              the world                       is
  Aaaaaaaaaaaaaaaaaaaaaaaaaaaaaaaaa   -   la  -   la  -   la

G|------- ------- ------- -------|------- ------- ------- -------|
D|7------------------------------|--------6----------------------|
A|--------9---7---------------7--|----6-------9-------9----------|
E|----9-------------------9------|7-----------------------7---/--|
  at   your  com- mand
  Aaaaaaaaaaaaaaaaaaaaaaaaaaaaaaaaaaaaaaaaaaaaa - la- la- la- la
Verse (solo):
G|------- ------- ------- -------|------- ------- ------- -------|
D|--------6-------7---8---9------|------------------------7---7--|
A|-------------------------------|--------6-------9---6----------|
E|12--------------------------7--|----7--------------------------|

  la

G|------- ------- ------- -------|------- ------- ------- -------|
D|----7---6----------------------|--------6-------9---6-------7--|
A|----------------9---7-------7--|----7-------------------7------|
E|------------------------9------|-------------------------------|



G|------- ------- ------- -------|------- ------- ------- -------|
D|----7---6-------------------7--|----7---6----------------------|
A|----------------9---7----------|----------------9---7-------7--|
E|------------------------9------|------------------------8------|



G|------- ------- ------- -------|------- ------- ------- -------|
D|--------6-------9---6---9------|-------------------------------|
A|----7-----------------------7--|7---7---7-------7---7-------7--|
E|-------------------------------|-------------------------------|


Verse:
G|------- ------- ------- -------|------- ------- ------- -------|
D|--------6-------7---8---9------|----------------------------7--|
A|7------------------------------|--------6-------9---6----------|
E|----------------------------7--|----7-------------------7------|
  He's    as      blind   as      he  can     be,


G|------- ------- ------- -------|------- ------- ------- -------|
D|----7---6----------------------|--------6-------9---6-------6--|
A|----------------9---7-------7--|----7-------------------7------|
E|------------------------9------|-------------------------------|
  just    sees    what    he      wants to    see


G|------- ------- ------- -------|------- ------- ------- -------|
D|7-------6-------------------7--|----7---6----------------------|
A|----------------9---7----------|----------------9---7-------7--|
E|------------------------9------|------------------------8------|
  Nowhere     man,        can     you     see     me     at


G|------- ------- ------- -------|------- ------- ------- -------|
D|----------------6---9---6------|-------------------------------|
A|7-------7-------------------6--|7---7---7---7---7---7---7---7--|
E|-------------------------------|-------------------------------|
  all?                                            Nowhere     man,

Bridge:
G|------- ------- ------- -------|------- ------- ------- -------|
D|6---------------6---6-------6--|7---------------7---7----------|
A|--------6---------------6------|--------7---------------7------|
E|-------------------------------|-------------------------------|
                      don't       worry,         take your    time,
  Aaaaaaaaaaaaaaaaaaaaaaaaaaaaaaaaa   -   la  -   la  -   la

G|------- ------- ------- -------|------- ------- ------- -------|
D|6---------------6---6----------|7---------------7---7-------7--|
A|--------6----------------------|--------7---------------7------|
E|-------------------------------|-------------------------------|
                      don't       hurry           Leave it   all
  Aaaaaaaaaaaaaaaaaaaaaaaaaaaaaaaaa   -   la  -   la  -   la

G|------- ------- ------- -------|------- ------- ------- -------|
D|6---------------6---6-------6--|7------------------------------|
A|--------6---------------6------|--------9---7---------------7--|
E|-------------------------------|----9-------------------9------|
                             till some    body else
  Aaaaaaaaaaaaaaaaaaaaaaaaaaaaaaaaa   -   la  -   la  -   la

G|------- ------- ------- -------|------- ------- ------- -------|
D|7------------------------------|--------6----------------------|
A|--------9---7---------------7--|----6-------9------------------|
E|----9-------------------9------|7------------------------------|
  lends  you   a  hand
  Aaaaaaaaaaaaaaaaaaaaaaaaaaaaaaaaaaaaaaaaaaaaa - la- la- la- la
Verse:
G|------- ------- ------- -------|------- ------- ------- -------|
D|--------6-------7---8---9------|--------------------6----------|
A|7------------------------------|--------6-------9-----------9--|
E|----------------------------7--|----7--------------------------|
  Doesn't     have        a       point   of  view,


G|------- ------- ------- -------|------- ------- ------- -------|
D|7-------6----------------------|--------6-------9---6----------|
A|----------------9---7-------7--|----7-------------------7------|
E|------------------------9------|-------------------------------|
  knows   not     where   he's    go- ing     to,


G|------- ------- ------- -------|------- ------- ------- -------|
D|7-------6-------------------7--|----7---6----------------------|
A|----------------9---7----------|----------------9---7-------7--|
E|------------------------9------|------------------------8------|
  Isn't       he          a   bit     like    you         and


G|------- ------- ------- -------|------- ------- ------- -------|
D|--------6-------9---6---9------|--------6-------9---6----------|
A|7---7-----------------------7--|----7-----------------------7--|
E|-------------------------------|-------------------------------|
  me?                                             Nowhere     man,

Bridge:
G|------- ------- ------- -------|------- ------- ------- -------|
D|6---6---------------6-------6--|7-------7----------------------|
A|--------6-------6-------6------|------------7---7-------7------|
E|-------------------------------|-------------------------------|
                      please,     listen,         you don't   know
  Aaaaaaaaaaaaaaaaaaaaaaaaaaaaaaaaa   -   la  -   la  -   la

G|------- ------- ------- -------|------- ------- ------- -------|
D|6-------6-----------6-------6--|7-------7-----------7-------7--|
A|------------6-----------6------|------------7-----------7------|
E|-------------------------------|-------------------------------|
              what    you're      missing         Nowhere     man,
  Aaaaaaaaaaaaaaaaaaaaaaaaaaaaaaaaa   -   la  -   la  -   la

G|------- ------- ------- -------|------- ------- ------- -------|
D|6-------6-------6---6-------6--|--------4----------------------|
A|------------6-----------6------|----4-------7-----------4---7--|
E|-------------------------------|5------------------------------|
                              the world                       is
  Aaaaaaaaaaaaaaaaaaaaaaaaaaaaaaaaa   -   la  -   la  -   la

G|------- ------- ------- -------|------- ------- ------- -------|
D|--------4----------------------|--------6----------------------|
A|----4-------7-----------4---7--|----6-------9------------------|
E|5------------------------------|7-------------------7---7---/--|
  at   your  com- mand
  Aaaaaaaaaaaaaaaaaaaaaaaaaaaaaaaaaaaaaaaaaaaaa - la- la- la- la
Verse:
G|------- ------- ------- -------|------- ------- ------- -------|
D|--------6-------7---8---9------|------------------------6------|
A|-------------------------------|--------6-------9---9----------|
E|12--------------------------7--|----7--------------------------|
  He's    a       real            no  -   where   man,


G|------- ------- ------- -------|------- ------- ------- -------|
D|7-------6----------------------|--------6-------6---7---9---6--|
A|----------------9---7-------7--|----7--------------------------|
E|------------------------9------|-------------------------------|
  sitting     in          his     no  -   where   land,


G|------- ------- ------- -------|------- ------- ------- -------|
D|----7---6----------------------|7-------6----------------------|
A|----------------9---7----------|----------------9---7----------|
E|------------------------9------|------------------------8------|
  Ma- king    all         his     no  -   where   plans       for


G|------- ------- ------- -------|------- ------- ------- -------|
D|------------6---9-------6---9--|-------------------------------|
A|7-------7----------------------|7-------7-------7---7-------7--|
E|-------------------------------|-------------------------------|
  no    -     bo- dy

Outro:
G|------- ------- ------- -------|------- ------- ------- -------|
D|7-------6----------------------|7-------6----------------------|
A|----------------9---7----------|----------------9---7----------|
E|------------------------9------|------------------------8------|
  Ma- king    all         his     no  -   where   plans       for


G|------- ------- ------- -------|------- ------- ------- -------|
D|-------------------------------|-------------------------------|
A|7-------7-------7---7-------5-/|7---7---7---7---7---7---7---7--|
E|-------------------------------|-------------------------------|
  no    -     bo- dy


G|------- ------- ------- -------|------- ------- ------- -------|
D|7-------6----------------------|7-------6----------------------|
A|----------------9---7----------|----------------9---7----------|
E|------------------------9------|------------------------8------|
  Ma- king    all         his     no  -   where   plans       for


G|------- ------- ------- -------|------- ------- ------- -------|
D|----------------6---9---6------|-------------------------------|
A|7-------7---7------------------|7------------------------------|
E|-------------------------------|-------------------------------|
  no    -     bo- dy

Please e-mail me for any corrections.
Suggest correction
Creating personal tab
Creating personal tab
You can edit any tab online and save it as your Personal.

You can edit, replace or remove any tab part or add personal notes – all changes will be seen only by you.

Personal tabs can be accessed anytime from any device, even offline.
Learn more »
comments
print report bad tab
guest
You may want to rate the tab now too:
select rating
Wanna post a correction for this tab? Suggest correction