Oops, an error
Loading. Please wait.
We have an official Paperback Writer tab made by UG professional guitarists. Check out the tab »
×
28,591 views 27 this week
1 commentread comment
1 2 3 4 5
x 10
add to favorites
×
Save as Personal and add changes to this tab that will be seen only by you. Learn more ›
×
You can save this tab as Personal to edit and correct it or add notes. All changes will be seen only by you. Learn more »
launch autoscroll
font size
0
reset
how to read this tab
guitar tuner
backing track
0:00
0:00
edit
Autoscroll
slow
fast
+/-
esc
set tempo
stop
Author
Title: Paperback Writer
Artist: The Beatles
Album: 

Instrument: 6 String Guitar

Tabbed by: Gary (rock_n__roll@hotmail.co.uk)

Tuning: 1 Step Down (D G C F A D)




Intro:
D|-------------|---------------|-------------|------------------||
A|-------------|-------------2-|-------------|------------------||
F|-------2---0-|-------------0-|-------2---0-|-------------0----||
C|---0h2-------|---0-----0h2---|---0h2-------|---0-----0h2------||
G|-0-------0---|-0-----0-------|-0-------0---|-0-----0----------||
D|-------------|---------------|-------------|------------------||

Verse:
D|----5-5-----------|----|-----5-----------|----|-----5------------||
A|----5-5-----------|----|-----5-----------|----|-----5------------||
F|----2-2-----------|----|-----2-----------|----|-----2------------||
C|-2--2-2---2--4--2-|-x4-|-2---2---2-2-4-2-|-x3-|-2---2---2-2-2-2--||
G|-0--0-0---0--0--0-|----|-0---0---0-0-0-0-|----|-0---0---0-0-0-0--||
D|------------------|----|-----------------|----|------------------||


Chorus:
D|-----5--------------|-----5----------|-------------|----------------||
A|-----3------------3-|-----3----------|-------------|-------------2--||
F|-----2---2--2--2--2-|-----2-----2--5-|-------2---0-|-------------0--||
C|-0---0---0--0--0----|-0---0--------5-|---0h2-------|---0-----0h2----||
G|--------------------|----------------|-0-------0---|-0-----0--------||
D|--------------------|----------------|-------------|----------------||


Verse:
D|----5-5-----------|----|-----5-----------|----||
A|----5-5-----------|----|-----5-----------|----||
F|----2-2-----------|----|-----2-----------|----||
C|-2--2-2---2--4--2-|-x4-|-2---2---2-2-4-2-|-x4-||
G|-0--0-0---0--0--0-|----|-0---0---0-0-0-0-|----||
D|------------------|----|-----------------|----||


Chorus:
D|-----5--------------|-----5----------|-------------|----------------||
A|-----3------------3-|-----3----------|-------------|-------------2--||
F|-----2---2--2--2--2-|-----2-----2--5-|-------2---0-|-------------0--||
C|-0---0---0--0--0----|-0---0--------5-|---0h2-------|---0-----0h2----||
G|--------------------|----------------|-0-------0---|-0-----0--------||
D|--------------------|----------------|-------------|----------------||


Verse:
D|----5-5-----------|----|-----5-----------|----||
A|----5-5-----------|----|-----5-----------|----||
F|----2-2-----------|----|-----2-----------|----||
C|-2--2-2---2--4--2-|-x4-|-2---2---2-2-4-2-|-x4-||
G|-0--0-0---0--0--0-|----|-0---0---0-0-0-0-|----||
D|------------------|----|-----------------|----||


Chorus:

D|--------------------|--------------------|------------------||
A|--------------------|--------------------|------------------||
F|-7---7---7--7--7--7-|--------------------|-------2-----0----||
C|-5---5---5--5--5--5-|-5----5--5----5--5--|---0h2------------||
G|--------------------|--------------------|-0---------0------||
D|--------------------|--------------------|------------------||


Bridge:
n/c

(Paaaaaperback wriiiiiiter, wriiiiiiiiiiiiteeer)


Breakdown:

D|-------------|-----------------||  D|--------------------||
A|-------------|-----------------||  A|--------------------||
F|-------2---0-|-----------------||  F|--------------------||
C|---0h2-------|---0-----0--0h2--||  C|-2---2-----2--4--2--||x2
G|-0-------0---|-0-----0---------||  G|-0---0-----0--0--0--||
D|-------------|-----------------||  D|--------------------||


D|-----------------------||
A|-----------------------||
F|--------------------2--||
C|-2---2--2--2--2--4-----||x2
G|-0---0--0--0--0--------||
D|-----------------------||


Key:
x = dead note
s = quick slide
/ = slide up
\ = slide down
h = hammer on
p = pull off

            
            
Suggest correction
Creating personal tab
Creating personal tab
You can edit any tab online and save it as your Personal.

You can edit, replace or remove any tab part or add personal notes – all changes will be seen only by you.

Personal tabs can be accessed anytime from any device, even offline.
Learn more »
comments
print report bad tab
1 comment total.
-1 reply
Bradgrrw 31 Nov 04, 2007 07:34 AM

here is a lot better intro.
e|----------------------------
B|----------------------------
G|--------0----------------0--
D|------0-----3----------0----
A|----3-----------3----3------
E|--3-------3---3---3---------

guest
You may want to rate the tab now too:
select rating
Wanna post a correction for this tab? Suggest correction