Oops, an error
Loading. Please wait.

Penny Lane bass

version 2
version 2

Whole song

Interactive

23,075 views 24 this week
7 commentsread comments
1 2 3 4 5
x 25
add to favorites
×
Save as Personal and add changes to this tab that will be seen only by you. Learn more ›
×
You can save this tab as Personal to edit and correct it or add notes. All changes will be seen only by you. Learn more »
launch autoscroll
font size
0
reset
guitar tuner
edit
Autoscroll
slow
fast
+/-
esc
set tempo
stop
Author
Band:    The Beatles
Album:   Magical Mystery Tour
Song:    Penny Lane
Tabber:  Thuur 

G|16|-16--15—-13--11|--9-----11--11--------|
D|--|---------------|----11---------------8|
A|--|---------------|----------------------|
E|--|---------------|----------------------|

G|---------|----|----|----|--------6---|--------6---|
D|-9-8-6-4-|-9*-|-6*-|-5*-|-4--4-4----4|-4--4-4----4|
A|---------|----|----|----|------------|------------|
E|---------|----|----|----|------------|------------|

G|--------|-----------|----------|---------|-----------|
D|-9-8-6-4|-2---4--4-8|-9--8--6-4|-9*----6*|------5*---|
A|--------|---4-------|----------|---------|-----------|
E|--------|-----------|----------|---------|-----------|

G|-----6----------|-------------|--------------|
D|-4-----4----4---|-2-----------|--------------|
A|----------------|-----2-------|--------------|
E|----------------|---------0---|--5--5-5--0-5-|

G|-----------------|----------------|-------7------|
D|-----------------|------------4-6-|-7--7-----7---|
A|-4--4--4----2--4-|-5--5--5--7-----|-------------5|
E|----------5------|----------------|--------------|

G|----------------|------------------|------------7-|
D|----------------|------------------|--------------|
A|----------4-----|-4--4--4--7--4--5-|-5-----5--5---|
E|-5--5--5-----5--|------------------|--------------|

G|----------|---------|-------------|-----------|
D|----------|-9-8-6-4-|-2-----4--4-8|9-8--6--4--|
A|-4--2-----|---------|----4--------|-----------|
E|-------2--|---------|-------------|-----------|

G|----|----|----|---------6-----|---------6-----|
D|-9*~|-6*-|-5*-|-4--4-4-----4--|-4--4-4-----4--|
A|----|----|----|---------------|---------------|
E|----|----|----|---------------|---------------|

G|-----------|----------|---------|-------------|
D|-9-8-6-4---|-2---4--4-|89-8-6-4-|-9-9---9-9---|
A|---------6-|---4------|---------|-----9-----9-|
E|-----------|----------|---------|-------------|

G|---------|---------|-----6-----|-----------|
D|-6-6-6-6-|-5-5-5-5-|-4-4---4-4-|-2---------|
A|---------|---------|-----------|---4-0-----|
E|---------|---------|-----------|-------4-0-|

G|-----------|-----------------|----------------|-------7------|
D|-----------|-----------------|------------4-6-|-7--7-----7---|
A|-----------|-4--4--4----2--4-|-5--5--5--7-----|-------------5|
E|-5--5--0-5-|----------5------|----------------|--------------|

G|---------------|--------------|-------------|-----------|
D|--------7------|-----7-7------|-----7-7-----|-----------|
A|---4-7---------|-4-7----------|-5-7---------|-4--2------|
E|-5-------------|--------------|-------------|-------2---|

G|--------|-----------|----------|----|----|----|
D|-9-8-6-4|-2---4--4-8|9--8---6-4|-9*-|-6*-|-5*-|
A|--------|---4-------|----------|----|----|----|
E|--------|-----------|----------|----|----|----|

G|--------6---|--------6---|--------|-----------|---------|----|----|
D|4----4----4-|-4----4---4-|-9-8-6-4|-2---4--4-8|9--8--6-4|----|-6*-|
A|------------|------------|--------|---4-------|---------|-2*-|----|
E|------------|------------|--------|-----------|---------|----|----|

G|---------|------6---|------------|
D|-5-5-5-5-|4--4----4-|-2----------|
A|---------|----------|---4-0------|
E|---------|----------|-------4-0--|

G|-------------|-----------------|----------------|-------------|
D|-------------|-----------------|----------------|-------------|
A|-------------|-4--4--4----2--4-|-5--5-----2-5---|-5--5-5---5--|
E|-5--5-5--0-5-|----------5------|-------4--------|--------5---5|

G|---------------|--------------|-------------|-----------|
D|--------7------|-----7-7------|-----7-7-----|-----------|
A|---4-7---------|-4-7----------|-5-7---------|-4--2------|
E|-5-------------|--------------|-------------|-------2---|

G|-------------|-------------|-------------|-----1-3-4--|-------|
D|-9--9-9---9--|-1--1-1---1--|-2-2---2---2-|-2-4--------|-2-----|
A|--------9----|--------1----|-----2---2---|------------|---4-2-|
E|-------------|-------------|-------------|------------|-------|

G|--------4---|-------------|-------------|-------------|-------|
D|------------|1--1-1---1---|-2----2-2—--8|9*----9-9----|-------|
E|-2--2-2---2-|-------1-----|----2--------|-----------7-|2*-----|
A|------------|-------------|-------------|-------------|-------|

* = Let Ring
~ = Vibrato

Well, There you go.. Don't be too hard on me, it's my first tab. Hope you have fun :)

            
            
Suggest correction
Creating personal tab
Creating personal tab
You can edit any tab online and save it as your Personal.

You can edit, replace or remove any tab part or add personal notes – all changes will be seen only by you.

Personal tabs can be accessed anytime from any device, even offline.
Learn more »
There is a new version of this tab from 5 days ago which you may like more. Go check it out:
comments
print report bad tab
7 comments total. Showing first comments.
0 reply
SoftParade1967 512 Jul 22, 2008 01:01 PM

why does this only have 3 stars? This is a 5 start tab right here. Nice job man.

0 reply
Fred026 10 Mar 29, 2011 05:41 AM

yeeah, this is very good

0 reply
Bassprogman 10 Dec 10, 2012 01:10 PM

Excellent

guest
You may want to rate the tab now too:
select rating
Wanna post a correction for this tab? Suggest correction