Oops, an error
Loading. Please wait.
We have an official Please Please Me tab made by UG professional guitarists. Check out the tab »
×
2,537 views 1 this week
no commentswrite comment
1 2 3 4 5
2 more votes to show rating
add to favorites
×
Save as Personal and add changes to this tab that will be seen only by you. Learn more ›
×
You can save this tab as Personal to edit and correct it or add notes. All changes will be seen only by you. Learn more »
launch autoscroll
font size
0
reset
how to read this tab
guitar tuner
backing track
0:00
0:00
edit
Autoscroll
slow
fast
+/-
esc
set tempo
stop

This's The Complete (PLease, PLease Me) Album Chords



____________________________________________________________
____________________________________________________________

i saw her standing there
(The Beatles)

E7
-4--4-4-|
-3--3-3-|
-4--4-4-|
-2--2-2-|
--------|
--------|

riff 1            riff 2          riff 3
E7                 A7              B7
----------------- --------------- ----------------|
----------------- --------------- ----------------|
----------------- ---------2----- ----------------|
---------2-2----- ---------2----- -4-4-6--4-4-6-4-|
---------2-2----- -0-0-4-0---5-4- -2-2-2--2-2-2-2-|
-0-0-4-0-----5-4- --------------- ----------------|

verses
   riff 1                                riff 2          riff 1
           E7                                A7              E7
(1)well she was just seventeen        you know      what i mean
(2)well she looked          at me    and i        i could see
(3)well we danced through the night and we held each other tight
                                             riff 3
                                             B7
and the way she looked was way beyond compare
that before too long id fall in love with her
and before to long  i   fell in love with  her

chorus
   E                E7            A          C
so how could i dance     with another        woo
   she wouldnt dance     with another        woo

       E/B   E7/B    B7            E7
when i saw   her     standing there

riff 4
A7
-----------------|
-----------------|
-----------------|
---------2-2-----|
-0-0-3-4-----3-4-|
-----------------|

bridge
        Riff 4
        A7
well my heart went boom when i crossed that room

                           B7                    A7
and i held her hand in mi neen                  een
                           ---------------------|
                           ---------------------|
                           ---2---------2-------|
                           -------2-2s4---4---2-|
                           -2---4-----------4---|
                           ---------------------|
solo
E7
---------------------------------------------------------------|
-----------------------------------3-------------------3-------|
-2b3-2-0h2p0-------------0-2---2s4---2-0---------0-2s4---4s2-0-|
-------------2-2-0h2-0h2-----------------2---0h2---------------|
-------------------------------------------2-------------------|
---------------------------------------------------------------|
                B7                 E7
-3-3-3---------------------------------------------------------|
-3-3-3------------------------------------8-10b12-10b12-10-8---|
--------4s2-0--------------2--------0-7-9--------------------9-|
------------------0--2-2s4---4-0-------------------------------|
-------------2--2----------------2-----------------------------|
---------------------------------------------------------------|
A7                         E7             B7           E7
-10----10-------10---------------10----------------------------|
----10----10h12----10-10h12---12----10---------3---------------|
---------------------------------------12--2s4---4s2-0---------|
-------------------------------------------------------0h2-0h2-|
---------------------------------------------------------------|
---------------------------------------------------------------|
      B7
-------------------|
-------------------|
-2-0---------0---0-|
---------0h2---2---|
-----0h2-----------|
-------------------|


------------------------------------------------------------------------|
------------------------------------------------------------------------|


Misery
(The Beatles)

intro: C (piano)

The world is treating me bad... Misery. [C]

C               F
I'm the kind of guy,
     C              F
Who never used to cry,
                          G       C     Am
The world is treatin' me bad... Misery!

C                       F
I've lost her now for sure,
  C                  F
I won't see her no more,
                 G         C
It's gonna be a drag... Misery!

Am                              C
I'll remember all the little things we've done
Am                                   G        F
Can't she see she'll always be the only one, only one.

 C               F
Send her back to me,
        C            F
'Cause everyone can see
                 G         C
Without her I will be in misery

Am                             C
I'll remember all the little things we've done.
Am                                   G         F
She'll remember and she'll miss her only one, lonely one.

C                F
Send her back to me,
       C            F
'Cause everyone can see,
                   G        C    Am
Without her I will be in misery (oh oh oh)
      C     Am
In misery (ooh ee ooh ooh)
      C     Am                    C
My misery (la la la la la la)


----------------------------------------------------------------------|
----------------------------------------------------------------------|


Anna (Go To Him)
(The Beatles)

Intro (play twice... also play over D-Bm sections of verses):

    D                     Bm                      D
-|----------------10--10--10--10--10--10--10--10--10-----------|
-|--------7----------------------------------------------------|
-|-----7-----7-------------------------------------------------|
-|--7--------------7---8---9---8---9---8---9---8---7-----------|
-|-------------------------------------------------------------|
-|-------------------------------------------------------------|


Verse 1:
 D   Bm                 D       Bm             D        Bm
Anna   you come and ask me girl    to set you free girl
                      D        Bm              Em      A7
You say he loves you more than me   so I will set you free
         D      Bm              D   Bm
Go with him   (Anna)   Go with him


Verse 2:
 D  Bm                 D      Bm                D        Bm
Anna   girl before you go now    I want you to know now
              D       Bm              Em        A7
That I still love you so   but if he loves you more
         D
Go with him


Middle:
 G
All of my life    I've been searching    for a girl
        D
Who'll love me     like I     love her
   G                         Gm
But every girl I've ever had    breaks my heart and leave me sad
 E7                                 A7
What am I   what am I   supposed to do    oh...


Verse 3:
 D  Bm                 D        Bm
Anna   just one more thing girl
                    D      Bm                Em        A7
You give back your ring to me     and I will set you free
         D
Go with him


Repeat middle part
Repeat verse 3
then...


Ending:
  Bm             D      Bm
(Anna)  Go with him   (Anna)
                 D           Bm              D
You can go with him girl   (Anna)   Go with him


----------------------------------------------------------------------|
----------------------------------------------------------------------|


Chains
(The Beatles)

Intro:

Bb

Verse 1:

Bb
Chains  my baby's got me locked up in chains   And they ain't the
Eb                         Bb
kind          that you can see             Woah it's
F              Eb               Bb         F
chains of love    got a hold on me, yeah, pa-lum-pa-lum-pa-lum-pa


Verse 2:

Bb
Chains  I can't break away from them chains   Can't run a-
Eb                           Bb
round         cause I'm not free             Woah these
F              Eb              Bb         Bb7
chains of love    won't let me be, yeah,


Bridge:

Eb                            Bb                 Bb7
I wanna tell you pretty baby     I think you're fine
Eb                         F
I'd like to love you  But darling, I'm imprisoned by these


Verse 3:

Bb
Chains  my baby's got me locked up in chains   And they ain't the
Eb                         Bb
kind         that you can see             Woah it's
F              Eb               Bb         Bb7
chains of love    got a hold on me, yeah,


Bridge:

Eb                                Bb                  Bb7
Please believe me when I tell you    You're lips are sweet
Eb                          F
I'd like to kiss them  But I can't break away from all these


Verse 4:

Bb
Chains  my baby's got me locked up in chains   And they ain't the
Eb                          Bb
kind          that you can see             Woah it's
F              Eb               Bb         Bb7
chains of love    got a hold on me, yeah,


Coda:

Bb
Chains         chains of love       chains of
                          Eb        Ebm
love           chains of love


----------------------------------------------------------------------|
----------------------------------------------------------------------|


Boys
(The Beatles)

Intro:
  B7                           A7
-|----------------------------|-------5----------5---------|
-|-------9-----7--------------|----------------------------|
-|-------9-----7p8------------|6-------------7------6------|
-|------------------9---------|7-------------7------7------|
-|----------------------------|----------------------------|
-|----------------------------|----------------------------|
  ^      ^      ^      ^       ^      ^      ^      ^
  E7                           B7
-|-------0--------------------|----------------------------|
-|-------0------2---2---------|----------------------------|
-|--------------2---0---------|---2------------------------|
-|---------------------2--0---|----------------------------|
-|----------------------------|2---------------------------|
-|----------------------------|----------------------------|
  ^      ^      ^      ^       ^      ^      ^      ^


B7
I've been told when a boy kiss a girl

Take a trip around the world      Hey
A7
Hey                               Hey
E7
Hey                               Hey
B7                A7
Hey               Yes they say you do
E7                B7
                  Well I talk about
E7
boys              Don't you know I mean

boys              Well I talk about boys
A7
now               Ahhhhhhhhh
E7
boys              Well I talk about
B7                A7
boys now          What a bundle of joy
E7
Alright George

Solo:

 B7                            E7
-|----------------------------|----------------------------|----------------------------|
-|---8/9-9---8-/8-/8--/8--/8--|8------------8----8---------|---3---3--3---3--3----------|
-|-----------9-/9-/9--/9--/9--|-------8-----8h9--8h9-------|---4---4--4---4--4---2--0---|
-|----------------------------|----------------------------|----------------------------|
-|----------------------------|----------------------------|----------------------------|
-|----------------------------|----------------------------|----------------------------|
  ^      ^      ^      ^       ^      ^      ^      ^

-|----------------------------|---12------12-----12----12--|
-|----------------------------|-------9-----10-----11------|
-|----------------------------|----------------------------|
-|2------2--------------------|----------------------------|
-|----------------------------|----------------------------|
-|----------------------------|----------------------------|
  ^      ^      ^      ^       ^      ^      ^      ^
  A7
-|-----------------15---------|15----------------------------|
-|12---------------13b15-13b15|13b15-------------------14----|
-|----------------------------|------------------------13b15-|
-|----------------------------|------------------------------|
-|----------------------------|------------------------------|
-|----------------------------|------------------------------|
  ^      ^      ^      ^       ^      ^      ^      ^
  E7
-|----------------------------|----------------------------|
-|14---14---14------12--------|----------------------------|
-|13b1513b1513b15---12h13-----|----------------------------|
-|------------------------14--|14--------------------------|
-|----------------------------|----------------------------|
-|----------------------------|----------------------------|
  ^      ^      ^      ^       ^      ^      ^      ^

  B7                           A7
-|--------------12-----12-----|12-----12-------------------|
-|12-----12-----12-----12-----|12-----12-------------------|
-|141b6--14b16--14b16--14b16--|14b16--14b16--16r14-12------|
-|----------------------------|----------------------14----|
-|----------------------------|----------------------------|
-|----------------------------|----------------------------|
  ^      ^      ^      ^       ^      ^      ^      ^
  E7                           B7
-|-------0------0------0------|0---------------------------|
-|-------0----0-0----0-0----0-|0----0----------------------|
-|-------4------3------2------|0---------------------------|
-|----------------------------|-------2------2p0-----------|
-|----------------------------|------------------2---------|
-|----------------------------|----------------------------|
  ^      ^      ^      ^       ^      ^      ^      ^


E7
My girl says when I kiss her lips

Get the feeling all through her fingertips   Hey
A7
Hey                               Hey
E7
Hey                               Hey
B7                A7
Hey               Yeah she said you do
E7                B7
                  Well I talk about
E7
boys              Don't you know I mean

boys              Well I talk about boys
A7
now               Ahhhhhhhhh
E7
boys              Well I talk about
B7                A7                   E7
boys now          What a bundle of joy
E7
My girl says when I kiss her lips

Get the feeling all through her fingertips   Hey
A7
Hey                               Hey
E7
Hey                               Hey
B7                A7
Hey               Yeah she said you do
E7                B7
                  Well I talk about
E7
boys              Don't you know I mean

boys              Well I talk about boys
A7
now               Ahhhhhhhhh
E7
boys              Well I talk about
B7                A7
boys now          What a bundle of joy
E7                B7
                  Ah yeah!
E7
boys              Don't you know I mean

boys              Oh
A7
boys              Ahhhhh     Ahhhhhh
E7
                  Well I talk about


----------------------------------------------------------------------|
----------------------------------------------------------------------|


Ask Me Why
(The Beatles)

Intro:
[this little lick also used over some E chords during verses]

    E
-|-------------------|
-|-------------------|
-|-------------------|
-|-----9--9----------|
-|--7-----------7----|
-|-----------7-------|


Verse:

E  F#m  G#m  F#m                              E
I  love you        'cos you tell me things I want to know
 E  F#m  G#m  F#m                       E           G#7
And it's true      that it really only goes to show that I know
     C#m              A                F#m  B7
That I I I I  would never ever ever be blue
 E  F#m    G#m  F#m                      E
Now you're mine      my happiness near makes me cry
 E  F#m G#m  F#m                            E        G#7
And in  time        you'll understand the reason why that I cry
     C#m
It's not because I'm sad
                A                        E    E+   (e.g., 076550)
But you're the only love that I've ever had


Middle:
         A      B7                 E   E+
I can't believe   it's happened to me
          A     B7               E     B7
I can't conceive   of any more misery


Verse:
 E  F#m G#m              F#m
Ask me  why   I'll say I love you   [second time jump to ending]
         G#m                A   E   E+
And I'm always thinking of you

 [now repeat from the middle]


Ending:

           G#m                A    E           A
-|-----------------------------------------------------|
-|-----------------------------------------------------|
-|-----------------------------------------------------|
-|------------------------------------9--9-------------|
-|---------------------------------7-----------7-------|
-|------------------------------------------7----------|
  And I'm always thinking of you              you

    E           A       G#m
-|----------------------------------------------|
-|--------------------------4--4----------------|
-|--------------------------------4--4--4--4----|
-|-----9--9-----------------------------6--6----|
-|--7-----------7-------------------------------|
-|-----------7-----------4----------------------|
                you


----------------------------------------------------------------------|
----------------------------------------------------------------------|


Please Please Me
(The Beatles)

Intro:
         E
-|----------12--11--9--7--9--7--4----12--11--9--7--9--7--4--0------------|
-|----------------------------------------------------------0------------|
-|-----------9---8--6--4--6--4--1-----9---8--6--4--6--4--1--1------------|
-|----------------------------------------------------------2------------|
-|----------------------------------------------------------2------------|
-|---/7--0---(bass only)------------------------------------0------------|


Verse:
  E                                  A  E     G  A  B
-|--0----0-----0--0----0----0-----0--0--0-----3--5--7--------------------|
-|--5----4-----2--0----2----0--------2--0-----3--5--7--------------------|
-|--------------------------------1--2--1-----4--6--8--------------------|
-|--------------------------------------------5--7--9--------------------|
-|--------------------------------------------5--7--9--------------------|
-|--------------------------------------------3--5--7--------------------|
    Last night I said these words to my girl

  E                              A   E
-|--0--0----0---0----0--0----0---0---0-----------------------------------|
-|--5--4----2---0----2--0--------2---0-----------------------------------|
-|---------------------------1---2---1-----------------------------------|
-|---------------------------------------------------2--2----------------|
-|---------------------------------------------------------2-------------|
-|---------------------------------------------0--0----------------------|
    I know you ne - ver e - ven try girl

Chorus:
     A              F#m             C#m              A
Come on         Come on         Come on         Come on
        Come on         Come on         Come on         Come on

          E           A       B         E  (repeat intro riff)
Please please me oh yeah like I please you.


Verse 2:
You don't need me to show the way girl
Why do I always have to say girl

Repeat chorus

Middle:
A
I don't want to sound complaining

 B                                  E
But you know there's always rain in my heart

A
I do all the pleasing with you

 B                           E
It's so hard to reason with you

     A       B               E  (repeat intro riff)
Oh yeah, why do you make me blue?


----------------------------------------------------------------------|
----------------------------------------------------------------------|


Love Me Do
(The Beatles)

Intro:  G/// C/// Repeat as neccessary

G              C
Love, love me do
     G          C
You know Ilove you
       G        C
I'll always be true
     C    C/G    n.c.          G
So pleeeeeease...     Love me do

G              C
Love, love me do
     G          C
You know Ilove you
       G        C
I'll always be true
     C    C/G    n.c.          G
So pleeeeeease...     Love me do

Bridge:
D                  C  F    G
Someone to love, somebody new
D                  C  F        G
Someone to love, someone like you

G              C
Love, love me do
     G          C
You know Ilove you
       G        C
I'll always be true
     C    C/G    n.c.          G
So pleeeeeease...     Love me do

solo:  Bridge progression then
       G C G

G              C
Love, love me do
     G          C
You know Ilove you
       G        C
I'll always be true
     C    C/G    n.c.          G
So pleeeeeease...     Love me do
 G       C        G       C        G       C
Love me do, Yeah love me do, yeah love me do...


----------------------------------------------------------------------|
----------------------------------------------------------------------|


PS, I love you
(The Beatles)


   C#7:  x43404   (B7 moved up two frets)

   Em    C#7        D       Em      C#7     D
   As I write this letter, send my love to you
      Em      C#7      D      D      A7       D
   Remember that I'll always be in love with you.

     D                 Em                 D
   Treasure these few words till we're together,
         A     A7       Bm   D  A7     Bb   Bb   C   D
   Keep all my love forever. PS I love you, you you you.

   G                D       G               D
   As I write this letter, send my love to you
      G                D      D     A7        D
   Remember that I'll always be in love with you.

    D               Em           D
   I'll be coming home again to you love,

   And till the day I do love, PS I love you, you you you.

    Bb  C    D   DDDDD
    I love you.


----------------------------------------------------------------------|
----------------------------------------------------------------------|


Baby It's You
(The Beatles)

  G                 Em
 Sha la la la la la la   (3x's)
 C
 I's not the way you smile
                   G
 that touched my heart.
 C
 It's not the way you kiss
              G
 that tears apart.
          Em
 But how many many many nights go by
 Am                                  G             Em
 I sit alone at home and i cry over you.What can I do?
 C             D                    G   Em         G
 Can't help myself cause baby it's you. Baby it's you.


 C                                    G
 You should hear what they say about you    cheat  cheat
 C                                            G
 They say they say you never never ever been true
       Em
 Wo ho it doesn't matter what they say
 Am
 I know I'm gonna love you any old way
            G             Em
 What can I do then it's true.
 C                   D
 Don't want nobody nobody
                  G    Em         G
 Cause baby it's you.  Baby it's you.


 Solo Chords: |:Em|C|D|G|G|D|G| :||


----------------------------------------------------------------------|
----------------------------------------------------------------------|


Do You Want To Know A Secret
(The Beatles)

  Em                           Am    Em
You'll never know how much I really love you
  G                            F      B6
You'll never know how much I really care


  E   G#m-Gm-F#m      B7              E
Listen        do you want to know a secret
G#m-Gm-F#m      B7             E  G#m-Gm-F#m  B6/F
        do you promise not to tell  woooooooooah

  E   G#m-Gm-F#m      B7              E
Closer        let me whisper in your ear
G#m-Gm-F#m      B7                A   B7
       say the words you long to hear


                 C#m    F#m  B6
I'm in love with you   oooooooo


  E      G#m-Gm-F#m          B7              E     G#m-Gm-F#m
Listen  (do dah do)  do you want to know a secret (do dah do)
          B7           E    G#m-Gm-F#m  B6/F
do you promise not to tell (do dah do)  woah

  E      G#m-Gm-F#m          B7              E  G#m-Gm-F#m
Closer (do dah do)  let me whisper in your ear (do dah do)
         B7                A   B7
say the words you long to hear

                 C#m    F#m  B6
I'm in love with you   ooooooo
 A             F#m           C#m     Bm
I've know the secret for the week or two
 A      F#m  C#m     Bm F#m  B6
Nobody knows just we two
  E      G#m-Gm-F#m          B7              E     G#m-Gm-F#m
Listen  (do dah do)  do you want to know a secret (do dah do)
          B7           E    G#m-Gm-F#m  B6/F
do you promise not to tell (do dah do)  woah
  E      G#m-Gm-F#m          B7              E  G#m-Gm-F#m
Closer (do dah do)  let me whisper in your ear (do dah do)
         B7                A   B7
say the words you long to hear
                 C#m    F#m  B6  C#m
I'm in love with you   ooooooo

               F#m    B6     C#m
Ooooo  ooooo  ooooo  ooooo  ooooo

               F#m    B6     C#m
Ooooo  ooooo  ooooo  ooooo  ooooo

               F#m    B6     C#m
Ooooo  ooooo  ooooo  ooooo  ooooo


----------------------------------------------------------------------|
----------------------------------------------------------------------|


A Taste Of honey
(The Beatles)


   F#m	 F+    A     B       B	 E     Bm
		        (Fret 11)
E|--2--|--1--|--0--|--2--|----9----|--0--|--2--|
B|--2--|--2--|--2--|--4--|----10---|--0--|--3--|
G|--2--|--2--|--2--|--4--|----9----|--1--|--4--|
D|--4--|--3--|--2--|--4--|----11---|--2--|--4--|
A|--4--|--0--|--0--|--4--|----x----|--2--|--2--|
E|--2--|--x--|--0--|--2--|----x----|--0--|--2--|


        F#m	       F+		    A		  B
E|-------------2-|-------------1-|-------------0-|------------2--|
B|-2--------2----|-2--------2----|-2--------2----|-4--------4----|
G|-------2-------|-------2-------|-------2-------|-------4-------|
D|----4----------|----3----------|----2----------|----4----------|
A|---------------|---------------|---------------|---------------|
E|---------------|---------------|---------------|---------------|

Optional  B    E|--------------9------|
11th Fret        B|----------10-------|
        G|-9-----9--------------------|
        D|----11----------------------|
		A|xxxxxxxxxxxxxxxxx|
		E|xxxxxxxxxxxxxxxxx|


INTRO:

F#M		 	  A	      E	          F#m
	A taste of honey... tasting much sweeter than wine.  Ta do n doo Ta do n doo

VERSE I

  F#m      F+	    A	     B 	        F#m       F+       A      B
I dream of your first kiss, and then    I   feel    u-pon my   lips a-gain
 	  F#m 			 A	    E	        F#m   Bm  F#m    Bm  F#m
A taste of honey (A Taste Of Honey)..tasting much sweeter than wine


CHORUS:   F#m can be substituted with A if you like. Both sound fine.

    A	     B	         F#m       B
Oh, I will re-turn,    yes I will re-turn
          A	     E	      F#m
I'll come back for the honey and you    Ta do n doo      Ta do n doo

VERSE II

      F#m     F+	        A	       B	           F#m     F+		   A
Yours was the kiss that a-woke my heart. There lingers still, 'though we're far
  B		    F#m			      A		 E
a-part. That taste of honey ( A Taste Of Honey )... tasting much sweeter
     F#m	    Bm  F#m    Bm  F#m
than wine

CHORUS

   A	    B	        F#m       B
Oh I will re-turn,    Yes I will re-turn
          A			    E			   F#m
I'll come back (He'll come back) for the honey (For the honey) and you

Bm  F#m	Bm  F#m	Bm  F#m


----------------------------------------------------------------------|
----------------------------------------------------------------------|


Theres a place
(The Beatles)


intro chords:
  E  A   E

(no chord) There...is a (E)place, (A)where i can (E)...
(A)When i feel (E)low, (C#m)when i feel (B)b...
And it's my (Abm)Mind............(A)
And there's np (Emaj7)time......(A)
When (F#m)I'm a-(C#m)-lone.

(no chord)I..... think of (E)y..
(A)  and things you (E)do
(A)Go round my (E)h...
(C#m) the things you've (B)s...
Like "I (A) love, on - ly (B) you"________

(C#m)  In my mind there's mp (F#)s......
(E) don't you know taht it's (Ab)so?
(C#m) there'll be sad to(F#)m......
(E)  Don't you know that it's (Ab) so?   (C#m)=20

(No Chord) There... is a place....
There's a (E)place,  (A) There's a..  (REPEAT AND FADE)


----------------------------------------------------------------------|
----------------------------------------------------------------------|


Twist And Shout
(The Beatles)


Main Riff:    D       G   A
B------------|----7----------------------|
G------------|----7---4-4-6---6666-------|
D------------|----7---5-5-7---7777-------|
A----------4-|5-------5-5-7---7777-----4-|
E------5-7---|--------3-3-5---5555-5-7---|

Well shake it up baby now, twist and shout
Come on come on come on come on baby now, come on and work it on out
Well work it on out, you know you look so good
You know you got me goin' now, just like I knew you would

Well shake it up baby now, twist and shout
Come on come on come on come on baby, come on and work it on out
You know you twist it little girl, you know you twist so fine
Come on and twist a little closer now, and let me know that you're mine


Solo:     D   G      A          | -   repeat 3 times   - |
B------------------3-2----------|----------3---2---------|
G---------2------4-4-2----2-4-2-|--------4-4---2---2-4-2-|
D---------2----4-5--------2-5-4-|4---4---5---------2-5-4-|
A--------------5----------------|5---5-------------------|

Bass for solo:
G------------------4------------|
D----------------5---7-777775544|
A--------5-----5----------------|

A                 A7
Ahh   Ahh   Ahh   Ahh   Ahh   Wow!!

...Baby now, twist and shout
Come on come on come on come on baby, come on and work it on out
You know you twist it little girl, you know you twist so fine
Come on and twist a little closer now, and let me know that you're mine

Well shake it shake it shake it baby now
Well shake it shake it shake it baby now
Well shake it shake it shake it baby now  (oo!)
A                 A7
Ahh   Ahh   Ahh   Ahh   Ahh

Ending:             (Drums)       D9
e-----------------|---------------5---|
B-----------------|---------------5---|
G-----------------|---------------5---|
D-7-9-11-12-13-14-|---------------4---|
A-----------------|---------------5---|
E-5-7-9--10-11-12-|-------------------|




----------------------------------------------------------------------|
----------------------------------------------------------------------|


Tabbed By       :       Anas Borhan
e-mail Address  :       anas_borhan@yahoo.com

            
            
Suggest correction
Creating personal tab
Creating personal tab
You can edit any tab online and save it as your Personal.

You can edit, replace or remove any tab part or add personal notes – all changes will be seen only by you.

Personal tabs can be accessed anytime from any device, even offline.
Learn more »
Give kudos to tab author, rate the tab!
1 2 3 4 5
comments
print report bad tab
guest
Wanna post a correction for this tab? Suggest correction