Oops, an error
Loading. Please wait.
We have an official Polythene Pam tab made by UG professional guitarists. Check out the tab »
×
674 views 1 this week
no commentswrite comment
1 2 3 4 5
2 more votes to show rating
add to favorites
×
Save as Personal and add changes to this tab that will be seen only by you. Learn more ›
×
You can save this tab as Personal to edit and correct it or add notes. All changes will be seen only by you. Learn more »
launch autoscroll
font size
0
reset
guitar tuner
backing track
0:00
0:00
edit
Autoscroll
slow
fast
+/-
esc
set tempo
stop
 

G|--------------------------------|--------------------------------|
D|--------------------------------|--------------------------------|
A|--------------------------------|----7---7-------7---------------|
E|--------------------------------|--------------------------------|
  ^       ^       ^       ^        ^       ^       ^       ^     

G|--------------------------------|--------------------------------|
D|--------------------------------|--------------------------------|
A|--------------------------------|----7---7-------7---------------|
E|--------------------------------|--------------------------------|
  ^       ^       ^       ^        ^       ^       ^       ^     

G|--------------------------------|--------------------------------|
D|--------------------------------|--------------------------------|
A|----------------------------7---|7---7---7-------7-------7/------|
E|5---------------5---------------|--------------------------------|
  ^       ^       ^       ^        ^       ^       ^       ^     

G|--------------------------------|--------------------------------|
D|--------------------------------|--------------------------------|
A|----------------------------7---|7---7---7-------7-------7/------|
E|5---------------5---------------|--------------------------------|
  ^       ^       ^       ^        ^       ^       ^       ^     

G|--------------------------------|--------------------------------|
D|---5--------5-----------7/9-----|9---9---9-------9---------------|
A|--------------------5-----------|--------------------------------|
E|--------------------------------|------------------------7/------|
  ^       ^       ^       ^        ^       ^       ^       ^     

G|--------------------------------|--------------------------------|
D|--------------------------------|--------------------------------|
A|3---------------5-----------7---|7---7---7-------7---------------|
E|--------------------------------|------------------------7/------|
  ^       ^       ^       ^        ^       ^       ^       ^  

G|--------------------------------|--------------------------------|
D|--------------------------------|--------------------------------|
A|--------3-----------5-------7---|7---7---7-------7-------7-------|
E|--------------------------------|--------------------------------|
  ^       ^       ^       ^        ^       ^       ^       ^     

G|--------------------------------|--------------------------------|
D|--------------------------------|--------------------------------|
A|7-------------------------------|---7----7-------7---------------|
E|--------------------------------|--------------------------------|
  ^       ^       ^       ^        ^       ^       ^       ^  

G|--------------------------------|--------------------------------|
D|--------------------------------|--------------------------------|
A|--------------------------------|--------------------------------|
E|--------------------------------|--------7---7-------7-------7/--|
  ^       ^       ^       ^        ^       ^       ^       ^     

G|--------------------------------|--------------------------------|
D|--------------------------------|--------------------------------|
A|----------------------------7---|7---7---7-------7-------7/------|
E|5---------------5---------------|--------------------------------|
  ^       ^       ^       ^        ^       ^       ^       ^     

G|--------------------------------|--------------------------------|
D|--------------------------------|--------------------------------|
A|----------------------------7---|7---7---7-------7-------7/------|
E|5---------------5---------------|--------------------------------|
  ^       ^       ^       ^        ^       ^       ^       ^     

G|--------------------------------|--------------------------------|
D|---5--------5-----------7/9-----|9---9---9-------9---------------|
A|--------------------5-----------|--------------------------------|
E|--------------------------------|------------------------7/------|
  ^       ^       ^       ^        ^       ^       ^       ^     

G|--------------------------------|--------------------------------|
D|--------------------------------|--------------------------------|
A|3---------------5-----------7---|7---7---7-------7---------------|
E|--------------------------------|------------------------7/------|
  ^       ^       ^       ^        ^       ^       ^       ^  

G|--------------------------------|--------------------------------|
D|--------------------------------|--------------------------------|
A|--------3-----------5-------7---|7---7---7-------7-------7-------|
E|--------------------------------|--------------------------------|
  ^       ^       ^       ^        ^       ^       ^       ^     

G|--------------------------------|--------------------------------|
D|--------------------------------|--------------------------------|
A|7-------------------------------|---7----7-------7---------------|
E|--------------------------------|--------------------------------|
  ^       ^       ^       ^        ^       ^       ^       ^  

G|--------------------------------|--------------------------------|
D|--------------------------------|--------------------------------|
A|--------------------------------|--------------------------------|
E|--------------------------------|--------7---7-------7-------7/--|


G|--------------------------------|--------------------------------|
D|--------------------------------|--------------------------------|
A|5---------------------------5---|7---7---7-------7-------7/------|
E|----------------5---------------|--------------------------------|
  ^       ^       ^       ^        ^       ^       ^       ^ 

G|--------------------------------|--------------------------------|
D|--------------------------------|--------------------------------|
A|5---------------------------5---|7---7---7-------7-------7/------|
E|----------------5---------------|--------------------------------|
  ^       ^       ^       ^        ^       ^       ^       ^ 

G|--------------------------------|--------------------------------|
D|--------------------------------|--------------------------------|
A|5---------------------------5---|7---7---7-------7-------7/------|
E|----------------5---------------|--------------------------------|
  ^       ^       ^       ^        ^       ^       ^       ^ 

G|--------------------------------|--------------------------------|
D|--------------------------------|--------------------------------|
A|5---------------------------5---|7---7---7-------7-------7/------|
E|----------------5---------------|--------------------------------|
  ^       ^       ^       ^        ^       ^       ^       ^ 

G|--------------------------------|--------------------------------|
D|--------------------------------|--------------------------------|
A|5---------------------------5---|7---7---7-------7-------7/------|
E|----------------5---------------|--------------------------------|
  ^       ^       ^       ^        ^       ^       ^       ^ 

G|--------------------------------|--------------------------------|
D|--------------------------------|--------------------------------|
A|5---------------------------5---|7---7---7-------7-------7/------|
E|----------------5---------------|--------------------------------|
  ^       ^       ^       ^        ^       ^       ^       ^ 

G|--------------------------------|--------------------------------|
D|--------------------------------|--------------------------------|
A|5---------------------------5---|7---7---7-------7-------7/------|
E|----------------5---------------|--------------------------------|
  ^       ^       ^       ^        ^       ^       ^       ^ 

G|--------------------------------|--------------------------------|
D|--------------------------------|--------------------------------|
A|5---------------------------5---|7---7---7-------7-------5---6---|
E|----------------5---------------|--------------------7-----------|
  ^       ^       ^       ^        ^       ^       ^       ^ 

G|--------------------------------|--------------------------------|
D|--------------------------------|--------------------------------|
A|7---7---7---7---7---7---7---7---|7---7---7---7---7-------5---6---|
E|--------------------------------|--------------------7-----------|
  ^       ^       ^       ^        ^       ^       ^       ^ 

G|--------------------------------|--------------------------------|
D|--------------------------------|--------------------------------|
A|7---7---7---7---7---7---7---7---|5---5---5---5---5---5---5---5---|
E|--------------------------------|--------------------------------|
  ^       ^       ^       ^        ^       ^       ^       ^ 

G|--------------------------------|--------------------------------|
D|--------------------------------|--------------------------------|
A|4---4---4---4---4---4---4---4---|2---2---2---2---2---2---2---2---|
E|--------------------------------|--------------------------------|
  ^       ^       ^       ^        ^       ^       ^       ^ 

            
            
Suggest correction
Creating personal tab
Creating personal tab
You can edit any tab online and save it as your Personal.

You can edit, replace or remove any tab part or add personal notes – all changes will be seen only by you.

Personal tabs can be accessed anytime from any device, even offline.
Learn more »
Give kudos to tab author, rate the tab!
1 2 3 4 5
comments
print report bad tab
guest
Wanna post a correction for this tab? Suggest correction