Oops, an error
Loading. Please wait.

Real Love tab

version 3
version 3

Whole song

Interactive

5,173 views 1 this week
no commentswrite comment
1 2 3 4 5
1 last vote to show rating
add to favorites
×
Save as Personal and add changes to this tab that will be seen only by you. Learn more ›
×
You can save this tab as Personal to edit and correct it or add notes. All changes will be seen only by you. Learn more »
launch autoscroll
font size
0
reset
how to read this tab
guitar tuner
edit
Autoscroll
slow
fast
+/-
esc
set tempo
stop
Difficulty
intermediate
Here is the guitar tab for the solo to one of the best Beatles songs, Real love.

It's damn hard to perfect multiple times and George never seems to get any credit for 
guitar work.

(I have also put the chords to the song underneath. They are nearly perfect)


E----------------12----------------------------------------------14-------|
B-------10-12b14----12b14r12-10-10-12----12-14-14b15-14b15r14-14----14----|
G--7s11-------------------------------13----------------------------------|
D-------------------------------------------------------------------------|
A-------------------------------------------------------------------------|
E-------------------------------------------------------------------------|


E--------------17b19r17-14----------------------19----19b21r19-19b21r19---|
B--17b19-17b19-------------17b19-17b19-17b19-17----17---------------------|
G-------------------------------------------------------------------------|
D-------------------------------------------------------------------------|
A-------------------------------------------------------------------------|
E-------------------------------------------------------------------------|


E-----19----19b21r19-19b21r19---------------------------------------------|
B--16----16---------------------------------------------------------------|
G-------------------------------------------------------------------------|
D-------------------------------------------------------------------------|
A-------------------------------------------------------------------------|
E-------------------------------------------------------------------------|

Chords-

Intro- Em  B/D#  Em  B/D#


Verse

E                          G#m/D#
All my little plans and schemes
C#m7                           B+
lost like some forgotten dreams
A                             F#m7     B
Seems that all I really was doin'
                 E   E7 A   E   E7 A
was waitin' for you


E                           G#m/D#
Just like little girls and boys
 C#m7                         B+
playing with their little toys
A                                F#m7     B
Seems that all they really were doin'
                 E   E7 A   E   E7 A
was waiting for love


Bridge

E               Am6
No need to be alone
E               Am6
No need to be alone


Chorus

E       C#m  A        B
  It's real love, It's real
E           C#m  A          B
  Yes it's real love, It's real

Intro

Verse-
From this moment on I know
Exactly where my life will go
Seems that all I really was doin'
Was waiting for love

Bridge-
No need to be afraid
No need to be afraid

Chorus-
It's real love, it's real
Yes it's real love, it's real

Solo-

F#m7  C#  F#m  Bsus  B

Verse-
Thought I'd been in love before
but in my heart I wanted more
Seems like all I really was doin'
was waiting for you

Bridge-
No need to be alone
No need to be alone

Chorus-
It's real love, it's real
Yes it's real love, it's real

(repeat and fade)

Ta very much
Suggest correction
Creating personal tab
Creating personal tab
You can edit any tab online and save it as your Personal.

You can edit, replace or remove any tab part or add personal notes – all changes will be seen only by you.

Personal tabs can be accessed anytime from any device, even offline.
Learn more »
Give kudos to tab author, rate the tab!
1 2 3 4 5
comments
print report bad tab
guest
Wanna post a correction for this tab? Suggest correction