Oops, an error
Loading. Please wait.

Revolver Bass Tab

21,828 views 33 this week
2 commentsread comments
1 2 3 4 5
excellent!
x 6
add to favorites
launch autoscroll
font size
0
reset
guitar tuner
Tab Pro tools
  • play this tab
  • loop segment
  • change instrument
  • show fretboard
  • metronome
×
Best way to learn
"Revolver"
Autoscroll
slow
fast
+/-
esc
set tempo
stop
Contributor
-------------------------------------------------------------------------------
			     Revolver - The Beatles
-------------------------------------------------------------------------------

Tabbed By : R8:31b
e-mail:

Tuning: Standard

Taxman  (As  Tabbed By: gbeatle)

Intro:
G|------- 7------ ----5-- -------|------- 7------ ----5-- -------|
D|--------------5-5h7------------|--------------5-7--------------|
A|5------------------------------|5------------------------------|
E|-------------------------------|-------------------------------|
                                                          Let me

Verse:
G|------- 7------ ----5-- -------|------- 7------ ----5-- -------|
D|--------------5-7--------------|--------------5h7--------------|
A|5------------------------------|5------------------------------|
E|-------------------------------|-------------------------------|
      tell    you     how     it      will    be


G|------- ------- ----5-- -------|------- 7------ ----5-- -------|
D|----------------5/7------------|--------------5h7--------------|
A|5-------5----------------------|5------------------------------|
E|-------------------------------|-------------------------------|
                                                          There's
                                                              one

G|------- 7------ ----5-- -------|------- 7------ ----5-- -------|
D|--------------5h7--------------|--------------5h7--------------|
A|5------------------------------|5------------------------------|
E|-------------------------------|-------------------------------|
      for     you,    nine -  teen    for     me


G|------- ------- ----5-- -------|------- 7------ ----5-- \------|
D|----------------5/7------------|--------------5h7--------------|
A|5-------5----------------------|5------------------------------|
E|-------------------------------|-------------------------------|
                                                     'Cause   the
                                                          I'm
Refrain:
G|------- 5------ ----3-- -------|------- 5------ ----3-- -------|
D|----------------3/5------------|--------------3-3h5------------|
A|3------------------------------|3------------------------------|
E|-------------------------------|-------------------------------|
  tax  -  man,                        yeah,               I'm the


G|------- ------- ------- -------|------- 7------ ----5-- -------|
D|--------5-----------3----------|--------------5h7--------------|
A|--------------3h5--------------|5------------------------------|
E|3------------------------------|-------------------------------|
      tax    -    man


G|------- 7------ ----5-- -------|
D|--------------5h7--------------|
A|5------------------------------|
E|-------------------------------|
                          Should
                              five
Verse:
G|------- 7------ ----5-- -------|------- 7------ ----5-- -------|
D|--------------5h7--------------|--------------5h7--------------|
A|5------------------------------|5------------------------------|
E|-------------------------------|-------------------------------|
      per  -  cents   ap  -   pear    too     small?


G|------- ------- ----5-- -------|------- 7------ h---5-- -------|
D|---------------/7--------------|--------------557--------------|
A|5-------5----------------------|5------------------------------|
E|-------------------------------|-------------------------------|
                                                          Be  thank-


G|------- 7------ ----5-- -------|------- 7------ ----5-- -------|
D|--------------5h7--------------|--------------5h7--------------|
A|5------------------------------|5------------------------------|
E|-------------------------------|-------------------------------|
      ful     I       don't   take    it      all!


G|------- ------- ----5-- -------|------- 7------ h---5-- -------|
D|---------------/7--------------|--------------757-----7----/7--|
A|5-------5----------------------|5------------------------------|
E|-------------------------------|-------------------------------|
                                                     'Cause   the
                                                          I'm
Refrain:
G|------- 5------ h---3-- -------|------- 5------ h---3-- -------|
D|--------------335--------------|--------------335--------------|
A|3------------------------------|3------------------------------|
E|-------------------------------|-------------------------------|
  tax  -  man,                        yeah,               I'm the


G|------- ------- ------- -------|------- 7------ h---5-- -------|
D|--------5-------h---3----------|--------------557--------------|
A|--------------335--------------|5------------------------------|
E|3------------------------------|-------------------------------|
      tax    -    man


G|------- 7------ h---5-- -------|
D|--------------557--------------|
A|5------------------------------|
E|-------------------------------|

                      If  you drive
Bridge:
G|-------/7------/7------ -------|-------/7------/7------ -------|
D|--------------------7---5\-----|--------------------7\---------|
A|5------------------------------|5------------------------------|
E|-------------------------------|-------------------------------|
                      I'll   tax     the     street
      a       car,    car                             If  you try

G|-------/7------/7------ -------|------- ------- ------- -------|
D|--------------------7\---------|-------------------------------|
A|5------------------------------|3-------3-----3-3---3---3------|
E|-------------------------------|-------------------------------|
                      I'll   tax     your    seat
      to      sit,    sit                             If  you get

G|-------/7------/7------ -------|-------/7------/7------ -------|
D|--------------------7\---------|--------------------7\---------|
A|5------------------------------|5------------------------------|
E|-------------------------------|-------------------------------|
                      I'll   tax     the     heat
      too     cold,   cold                            If  you take

G|-------/7------/7------ -------|------- ------- ------- -------|
D|--------------------7\---------|-------------------------------|
A|5------------------------------|3-------3-----3-3---3---3------|
E|-------------------------------|-------------------------------|
                      I'll   tax     your    feet
      a       walk,   walk

G|------- ------- ------- -------|
D|-------------------------------|
A|3-------3-------3-------3---/--|
E|-------------------------------|


Verse (solo):
G|------- 7------ h---5-- -------|------- 7------ h---5-- -------|
D|--------------557--------------|--------------557--------------|
A|5------------------------------|5------------------------------|
E|-------------------------------|-------------------------------|
  Tax  -  man!


G|------- ------- ----5-- -------|------- 7------ h---5-- -------|
D|----------------5/7------------|--------------557--------------|
A|5-------5----------------------|5------------------------------|
E|-------------------------------|-------------------------------|



G|------- 7------ h---5-- -------|------- 7------ h---5-- -------|
D|--------------557--------------|--------------557--------------|
A|5------------------------------|5------------------------------|
E|-------------------------------|-------------------------------|



G|------- ------- ----5-- -------|------- 7\----- ----5\- -------|
D|----------------5/7------------|----------------7--------------|
A|5-------5----------------------|5------------------------------|
E|-------------------------------|-------------------------------|
                                                     'Cause   the
                                                          I'm
Refrain:
G|------- 5------ h---3-- -------|------- 5------ h---3-- -------|
D|--------------335--------------|--------------335--------------|
A|3------------------------------|3------------------------------|
E|-------------------------------|-------------------------------|
  tax  -  man,                        yeah,               I'm the


G|------- ------- ------- -------|------- 7------ h---5-- -------|
D|--------5-------h---3----------|--------------557--------------|
A|--------------335--------------|5------------------------------|
E|3------------------------------|-------------------------------|
      tax    -    man


G|------- 7------ h---5-- -------|
D|--------------557--------------|
A|5------------------------------|
E|-------------------------------|
                          Don't ask

Verse
G|------- 7------ h---5-- -------|------- 7------ h---5-- -------|
D|--------------557--------------|--------------557--------------|
A|5------------------------------|5------------------------------|
E|-------------------------------|-------------------------------|
      me      what    I       want    it      for


G|------- ------- ----5-- -------|------- 7------ h---5-- -------|
D|----------------5/7------------|--------------557--------------|
A|5-------5----------------------|5------------------------------|
E|-------------------------------|-------------------------------|
                                                          If  you
  Ha!     Ha!         Mister  Wil      -      son

G|------- 7------ h---5-- -------|------- 7------ h---5-- -------|
D|--------------557--------------|--------------557--------------|
A|5------------------------------|5------------------------------|
E|-------------------------------|-------------------------------|
      don't   want    to      pay     some    more


G|------- ------- ----5-- -------|------- 7\----- ----5\- -------|
D|----------------5/7------------|----------------7--------------|
A|5-------5----------------------|5------------------------------|
E|-------------------------------|-------------------------------|
                                                     'Cause I'm the
  Ha!     Ha!         Mister  Heath
Refrain:
G|------- 5------ h---3-- -------|------- 5------ ----3-- -------|
D|--------------335--------------|--------------3h5-----------5--|
A|3------------------------------|3------------------------------|
E|-------------------------------|-------------------------------|
  tax  -  man,                        yeah,               I'm the


G|------- ------- ------- -------|------- 7------ h---5-- -------|
D|--------5-----------3----------|--------------557-----------7--|
A|--------------3h5-----------5--|5------------------------------|
E|3------------------------------|-------------------------------|
      tax    -    man


G|------- 7------ h---5-- -------|
D|--------------557--------------|
A|5------------------------------|
E|-------------------------------|
                          Now my

Verse
G|------- 7------ h---5-- -------|------- 7------ h---5-- -------|
D|--------------557--------------|--------------557--------------|
A|5------------------------------|5------------------------------|
E|-------------------------------|-------------------------------|
      ad  -   vice    for     those   who     die


G|------- ------- ----5-- -------|------- 7------ h---5-- -------|
D|----------------5/7------------|--------------557--------------|
A|5-------5----------------------|5------------------------------|
E|-------------------------------|-------------------------------|
                                                          De- clare
  Tax  -  man!

G|------- 7------ h---5-- -------|------- 7------ h---5-- -------|
D|--------------557--------------|--------------557--------------|
A|5------------------------------|5------------------------------|
E|-------------------------------|-------------------------------|
      the     pen  -  nies    on      your    eyes!


G|------- ------- ----5-- -------|------7 ----5-- ------- -------|
D|----------------5/7------------|----------7-----5-/-7---5\-----|
A|5-------5----------------------|5------------------------------|
E|-------------------------------|-------------------------------|
                                                     'Cause I'm the
  Tax  -  man!
Refrain:
G|------- 5------ h---3-- -------|------- 5------ h---3-- -------|
D|--------------335-----------5--|--------------335-----------5--|
A|3------------------------------|3------------------------------|
E|-------------------------------|-------------------------------|
  tax  -  man,                        yeah,               I'm the


G|------- ------- ------- -------|------- 7------ h---5-- -------|
D|--------5-----------3----------|--------------557-----------7--|
A|--------------3h5-----------5--|5------------------------------|
E|3------------------------------|-------------------------------|
      tax    -    man                                 And     your

Outro:
G|------- ------- ------- -------|------- ------- ------- -------|
D|-------------------------------|-------------------------------|
A|8-------8-------8-------8------|8-------7-------5-------3------|
E|-------------------------------|-------------------------------|
      wor    -    king    for     no      one,            but


G|------- 7------ h---5-- -------|------- 7------ h---5-- -------|
D|--------------557--------------|--------------557--------------|
A|5------------------------------|5------------------------------|
E|-------------------------------|-------------------------------|
  me
  Tax  -  man!

G|------- ------- ----5-- -------|------- 7------ h---5-- -------|
D|----------------5/7------------|--------------557--------------|
A|5-------5----------------------|5------------------------------|
E|-------------------------------|-------------------------------|
Fade out...


Eleanor Rigby

not actually played on a bass guitar but this is what would be seen
if a string section would play form sheet music.

INTRO/REFRAIN:

" Ah, look at all the lonely people..."
1-----4--5--------------------------4---------|
2--5-----------------------------------5------|
3-----------------------------------------7---|
4---------------------------------------------|

" Ah, look at all the lonely people..."
1-------------------------------4---------|
2--5-------------------------------5------|
3-----7-------------------------------7---|
4--------8--------------------------------|

FIRST VERSE

"Eleanor Rigby, picks up the rice in the church..."
1------------------------------------|
2------------------------------------|
3------------------------------------|
4-0-0-0-0-0-0-0-0-0-0-0-0-0-0-0------|

"Where a wedding has been.........Lives in a dream..."
1-----------------------------5----------|
2---------------------------5---5--------|
3-------------------------3-------5-3~---|
4-0-0-0-0-0-0-0-0-0-0-0-0----------------|


"Waits at the window, wearing the face that she keeps..."
1------------------------------------|
2------------------------------------|
3------------------------------------|
4-0-0-0-0-0-0-0-0-0-0-0-0-0-0-0-0----|


"In a jar by the door.......Who is it for?"
1------------------------------------------|
2------------------------------------------|
3-------------------5-5--3-3--5-5----------|
4-0-0-0-0-0-0-0-0-0------------------------|

CHORUS

"All the lonely people, where do they all come from?"
1-------------------------------------------|
2-------------------------------------------|
3-------------------------------------------|
4--0~----------0~-------------0~----0~------|

"All the lonely people, where do they all belong?"
1---------------------------------------|
2---------------------------------------|
3---------------------------------------|
4--0~---------0~---------0~-------0~----|

SECOND VERSE

"Father Mckenzie, writing the words of a sermon..."
1------------------------------------|
2------------------------------------|
3------------------------------------|
4-0-0-0-0-0-0-0-0-0-0-0-0-0-0-0------|

"That no-one will hear......no-one comes near,"
1-----------------------------2-4-7-------9-------|
2------------------------2-4-7--------------------|
3--------------------3-5--------------------------|
4-0-0-0-0-0-0-0-0-0-------------------------------|

"Look at him working, darning his socks in the night...
1------------------------------------|
2------------------------------------|
3------------------------------------|
4-0-0-0-0-0-0-0-0-0-0-0-0-0-0--------|

"When there's nobody there........what does he care?"
1-----------------------------2-4-7--------9-------|
2-----------------------2-4-7----------------------|
3-------------------3-5----------------------------|
4-0-0-0-0-0-0-0-0-0--------------------------------|

CHORUS

"All the lonely people, where do they all come from?"
1-------------------------------------------|
2-------------------------------------------|
3-------------------------------------------|
4--0~----------0~-------------0~----0~------|

"All the lonely people, where do they all belong?"
1---------------------------------------|
2---------------------------------------|
3---------------------------------------|
4--0~---------0~---------0~-------0~----|

REFRAIN

" Ah, look at all the lonely people..."
1-----4--5--------------------------4---------|
2--5-----------------------------------5------|
3-----------------------------------------7---|
4---------------------------------------------|

" Ah, look at all the lonely people..."
1-------------------------------4------------|
2--5-------------------------------5---------|
3-----7-------------------------------7------|
4--------8-----------------------------------|

THIRD VERSE

"Eleanor Rigby died in the church, and was buried..."
1------------------------------------|
2------------------------------------|
3------------------------------------|
4-0-0-0-0-0-0-0-0-0-0-0-0-0-0--------|

"Along with her name.....nobody came,"
1------------------------2-4-7----9-----|
2------------------2-4-7----------------|
3--------------3-5----------------------|
4-0-0-0-0-0-0---------------------------|

"Father Mckenzie, wiping the dirt from his..."
1------------------------------------|
2------------------------------------|
3------------------------------------|
4-0-0-0-0-0-0-0-0-0-0-0-0-0----------|

"Hands as he walks from the grave.....no-one was saved,"
1---------------------------------2-4-7----9-------|
2---------------------------2-4-7------------------|
3-----------------------3-5------------------------|
4-0-0-0-0-0-0-0-0-0-0-0----------------------------|

CHORUS

"All the lonely people, where do they all come from?"
1-------------------------------------------|
2-------------------------------------------|
3-------------------------------------------|
4--0~----------0~-------------0~----0~------|

"All the lonely people, where do they all belong?"
1---------------------------------------|
2---------------------------------------|
3---------------------------------------|
4--0~---------0~---------0~-------0~----|

OUTRO

1---------------------|
2---------------------|
3--3---2--------------|
4---------3---2---0~--|


I'm Only Sleeping

Verse:
G|------ ------ ------ ------|------ ------ ------ ------|
D|---------------------------|6------6-----------------6-|
A|6------6-----------------6-|--------------6------6-----|
E|--------------6------6-----|---------------------------|
  When I wake up early in the mor -  ning,


G|------ ------ ------ ------|------ ------ ------ ------|
D|4------4-------------------|4------4-------------------|
A|---------------------------|---------------------5---5-|
E|-----------6--7---7--7---7-|--------------6---6--------|
  lift my    head,            I'm    still  yaw -  ning


G|------ ------ ------ ------|------ ------ ------ ------|
D|------------------4--------|---------------------------|
A|6-------------6------------|--------------6------------|
E|-------6-------------6-----|4------7-------------7-----|
  When I'm in the middle of a dream,


G|------ ------ ------ ------|------ ------ ------ ------|
D|4------4-------------------|4------4-------------------|
A|---------------------------|---------------------------|
E|-----------6--7------7-----|-----------6--7------7-----|
  stay in    bed,             float up - stream


G|------ ------ ------ ------|
D|---------------------------|
A|---------------------------|
E|7------6------4------------|

  float up - stream
Refrain:
G|------ ------ ------ ------|------ ------ ------ ------|
D|4------4-------------4-----|6------6----------4--6-----|
A|--------------4---6--------|--------------6------------|
E|---------------------------|---------------------------|
  Please     wake   me,    no,    don't  shake  me,    leave
      don't
                    ooooooooooooooooo
G|------ ------ ------ ------|------ ------ ------ ------|
D|8------8----------6--8-----|6------6-------------------|
A|--------------8------------|--------------6---6--4-----|
E|---------------------------|---------------------------|
      me     where  I      am,           I'm on  - ly
  ooooooooooooooooooooooooooooooooooooooooooooooooooooooo

G|------ ------ ------ ------|------ ------ ------ ------|
D|---------------------------|-----------8---------------|
A|---------------------------|----6--9----------9--------|
E|7------7------6------6-----|4--------------------------|
  slee   -   ping

Verse:
G|------ ------ ------ ------|------ ------ ------ ------|
D|---------------------------|6------6---------------4-6-|
A|6------6-------------6---6-|--------------6------6-----|
E|--------------6------------|---------------------------|
  Everybody seems to think I'm la -  zy,


G|------ ------ ------ ------|------ ------ ------ ------|
D|4------4-------------------|4------4-------------------|
A|---------------------------|-----------4---------5-----|
E|-----------6--7------7---7-|--------------6------------|
  I   don't  mind,         I  think      cra -  zy
                                  they're

G|------ ------ ------ ------|------ ------ ------ ------|
D|---------------------------|---------------------------|
A|6-------------6------------|--------------6------------|
E|-------6-------------6-----|4------7-------------7---7-|
  Running everywhere at such a speed,


G|------ ------ ------ ------|------ ------ ------ ------|
D|4------4-------------------|4------4-------------------|
A|---------------------------|---------------------------|
E|-----------6--7------7---7-|-----------6--7------7-----|
  till they  find             there's no need


G|------ ------ ------ ------|
D|---------------------------|
A|---------------------------|
E|7------6------4------------|

  there's no need
Refrain:
G|------ ------ ------ ------|------ ------ ------ ------|
D|4------4-------------4-----|6------6-------------4/6---|
A|--------------4---6--------|--------------6---6--------|
E|---------------------------|---------------------------|
  Please don't spoil my    day,      I'm miles  a  -   way,
                    ooooooooooooooooo

G|------ ------ ------ ------|------ ------ ------ ------|
D|8------8-------------6/8---|6------6-------------4/6---|
A|--------------8---8--------|--------------6---6--------|
E|---------------------------|---------------------------|
             and after     all           I'm on -  ly
  ooooooooooooooooooooooooooooooooooooooooooooooooooooooo

G|------ ------ ------ ------|------ ------ ------ ------|
D|--------------4------4-----|-----------8---------------|
A|---------------------------|----6--9----------9--------|
E|7------7-----------------7-|---------------------------|
  slee   -   ping


G|------ ------ ------ ------|------ ------ ----8- ------|
D|---------------------------|-----------8------8--------|
A|6--------------------------|----6--9-------------------|
E|6--------------------------|---------------------------|


Bridge:
G|------ ------ ------ ------|------ ------ ------ ------|
D|---------------------------|---------------------------|
A|4------4-------------4-----|6------6----------4--6-----|
E|--------------4---7------4-|--------------6----------6-|
  Keeping an eye    on the world  going  by     my     win-


G|------ ------ ------ ------|----4- ------ 4----- ------|
D|6------6------4---4--4-----|---------------------------|
A|-------------------------6-|7------------------------6-|
E|---------------------------|---------------------------|
      dow,                    taking my  time

Verse (half-solo):
G|------ ------ ------ ------|------ ------ ------ ------|
D|---------------------------|6------6-------------6-----|
A|-------6-------------6-----|--------------6------------|
E|--------------6---6--------|-------------------------7-|
  Lying there   staring at the cei - ling,
             and

G|------ ------ ------ ------|------ ------ ------ ------|
D|4------4-------------------|4------4-------------------|
A|---------------------------|-----------4---------5-----|
E|-----------6--7------7---7-|--------------6------------|
  waiting    for           the sleepy    fee -  ling


G|------ ------ ------ ------|------ ------ ------ ------|
D|------------------4--------|---------------------------|
A|6-------------6------------|--------------6----------6-|
E|-------6-------------6-----|4------7-------------7-----|

G|------ ------ ------ ------|------ ------ ------ ------|
D|4------4-------------------|4------4-------------------|
A|-------------------------4-|---------------------------|
E|-----------6--7------7-----|-----------6--7------7-----|

G|------ ------ ------ ------|
D|---------------------------|
A|---------------------2/4---|
E|7------6------4------------|


Refrain:
G|------ ------ ------ ------|------ ------ ------ ------|
D|4------4-------------4---4-|6------6-------------6-4-6-|
A|--------------4---6----4---|--------------6---6--------|
E|---------------------------|---------------------------|
  Please don't spoil my    day,      I'm miles  a  -   way,
                    ooooooooooooooooo

G|------ ------ ------ ------|------ ------ ------ ------|
D|8------8-------------8-----|6------6----------6--------|
A|--------------8---8--------|--------------6------4-----|
E|---------------------------|---------------------------|
             and after     all           I'm on -  ly
  ooooooooooooooooooooooooooooooooooooooooooooooooooooooo

G|------ ------ ------ ------|------ ------ ------ ------|
D|---------------------------|-----------8---------------|
A|---------------------------|----6--9----------9--------|
E|7------7------6------6-----|4--------------------------|
  slee   -   ping


G|------ ------ ------ ------|------ ------ ----8- ------|
D|---------------------------|-----------8------8--------|
A|6--------------------------|----6--9-------------------|
E|6--------------------------|---------------------------|


Bridge:
G|------ ------ ------ ------|------ ------ ------ ------|
D|---------------------------|---------------------------|
A|4------4-------------4-----|6------6-------------6-----|
E|--------------4---4--------|--------------6------------|
  Keeping an eye    on the world  going  by     my     win-


G|------ ------ ------ ------|----4- ------ 4----- ------|
D|6------6---6--4------4-----|---------------------------|
A|-------------------------6-|7------------------------6-|
E|---------------------------|---------------------------|
      dow,                    taking my  time          When

Verse:
G|------ ------ ------ ------|------ ------ ------ ------|
D|---------------------------|6------6-------------6-----|
A|-------6-------------6-----|--------------6------------|
E|--------------6------------|---------------------------|
      I  wake up early in the mor -  ning,


G|------ ------ ------ ------|------ ------ ------ ------|
D|4------4-------------------|4------4-------------------|
A|---------------------------|-----------4---------5-----|
E|-----------6--7------7---7-|--------------6------------|
  lift my    head,            I'm    still  yaw -  ning


G|------ ------ ------ ------|------ ------ ------ ------|
D|------------------4--------|---------------------------|
A|6-------------6------------|--------------6------------|
E|-------6-------------6-----|4------7-------------7-----|
  When I'm in the middle of a dream,


G|------ ------ ------ ------|------ ------ ------ ------|
D|4------4-------------------|4------4-------------------|
A|-------------------------4-|-----------4---------------|
E|-----------6--7------7-----|--------------7------7-----|
  stay in    bed,             float up - stream


G|------ ------ ------ ------|
D|---------------------------|
A|---------------------------|
E|7------6------4------9\----|

  float up - stream
Refrain:
G|------ ------ ------ ------|------ ------ ------ ------|
D|4------4-------------4---4-|6------6----------4--6---6-|
A|--------------4---6----4---|--------------6------------|
E|---------------------------|---------------------------|
  Please     wake   me,    no,    don't  shake  me,    leave
      don't
                    ooooooooooooooooo
G|------ ------ ------ ------|------ ------ ------ ------|
D|8------8----------8----8---|6------6----------6--6-----|
A|--------------8------8---8-|--------------6----------6-|
E|---------------------------|---------------------------|
      me     where  I      am,           I'm on  - ly
  ooooooooooooooooooooooooooooooooooooooooooooooooooooooo

G|------ ------ ------ ------|------ ------ ------ ------|
D|---------------------------|--------------8------------|
A|---------------------------|----6----9-----------9-----|
E|7------7------6------6-----|---------------------------|
  slee   -   ping


G|------ ------ ------ ------|------ ------ ------ ------|
D|---------------------------|---------------------------|
A|6--------------------------|---------------------------|
E|---------------------------|---------------------------|
  fade...


Love You To

this song doesnt actually have a bass line. since it is played on the sitar
 (which only plays in one key for a song) there is now variation in the bass line.
ok so this song is in the key of C, so if you did want to play along with the song
 you could do something like this:

Options:
    1      2       3
G|--5--|--5--|----5---5--|
D|--5--|-----|-----------|
A|--3--|--3--|--3---3----|
E|-----|-----|-----------|

Explanation:
ok so for option 1 fret all three notes and strum them as if you were playing a guitar
and let ring. option 2 fret both notes and pluck with both your thumb and forefinger
option 3 just alternate between the two
-- it is important that you LET THE NOTES RING--
like i said before theres no bass line for this song, so dont expect this to song
perfect to the song.
truthfully, if you play any of the notes listed it should sound alright,m play around with it,
get creative, expand your mind...


Here,There and Everywhere

Intro:
G|-------------------------------------|-----------------------------|
D|-------------------------------------|-----------------------------|
A|-------------------------------------|-----------------------------|
E|3---------------7--------------------|6----------------------------|
     To  lead a better life,                    I  need my love to be
  Oooooooooooooooooooooooooooooooo     ooooooooooooooooooooooooooooooo

G|------- ------- 7------ -------|
D|7---------------------------5--|
A|-------------------------------|
E|-------------------------------|
  here
  oooooooooooooooooooooooo
Verse:
G|------- ------- ------- -------|4------ ------- 5------ -------|
D|5---------------7--------------|-------------------------------|
A|-------------------------------|-------------------------------|
E|-------------------------------|-------------------------------|
  Here,                           making each day     of  the year,
  Oooooooooooooooooooooooooooooooooooooooooooooooo

G|------- ------- ------- -------|4------ ------- 5------ -------|
D|5---------------7--------------|-------------------------------|
A|-------------------------------|-------------------------------|
E|-------------------------------|-------------------------------|
                                  changing my life    with a  wave
  Oooooooooooooooooooooooooooooooooooooooooooooooo

G|------- ------- 4------ -------|------- ------- 4------ -------|
D|4------------------------------|4------------------------------|
A|-------------------------------|-------------------------------|
E|-------------------------------|-------------------------------|
      of  her hand,               No- bo- dy  can         de- ny
  Oooooooooooooooooooooooo        Oooooooooooooooooooooooo

G|------- ------- ------- -------|------- ------- 7------ -------|
D|----------------7--------------|7------------------------------|
A|7------------------------------|-------------------------------|
E|-------------------------------|-------------------------------|
     that there's something   there
  Ooooooooooooooooooooooooooooooooooooooooooooooooooooooooooooooo
Verse:
G|------- ------- ------- -------|4------ ----4-- 5------ -------|
D|5---------------7--------------|-------------------------------|
A|-------------------------------|-------------------------------|
E|-------------------------------|-------------------------------|
  There,                          running my  hands through her hair,
  Oooooooooooooooooooooooooooooooooooooooooooooooo

G|------- ------- ------- -------|4------ ----4-- 5------ -------|
D|5---------------7--------------|-------------------------------|
A|-------------------------------|-------------------------------|
E|-------------------------------|-------------------------------|
                                  both of us  thin - king how good
  Oooooooooooooooooooooooooooooooooooooooooooooooo

G|------- ------- 4------ -------|------- ------- 4------ -------|
D|4------------------------------|4------------------------------|
A|-------------------------------|-------------------------------|
E|-------------------------------|-------------------------------|
      it  can be,                 Someone is  speaking,       but
  Oooooooooooooooooooooooo        Oooooooooooooooooooooooo

G|------- ----9-- ------- -------|------- ----9-- 7------ -------|
D|----------------7-----------7--|7-------7----------------------|
A|7------------------------------|------------------------8------|
E|-------------------------------|-------------------------------|
  she doesn't know    he's    there                   I  want her
  Ooooooooooooooooooooooooooooooooooooooooooooooooooooooooooooooo
Bridge:
G|------- ------- ------- -------|5------ ----5-- 7------ 7------|
D|----------------5--------------|-------------------------------|
A|-------------------------------|-------------------------------|
E|6------------------------------|-------------------------------|
  everywhere,             and if  she's beside me, I know I   need


G|------- ------- ------- -------|5------ ----5-- 7------ 7------|
D|5-----------5---5---5---5---5--|-------------------------------|
A|-------------------------------|-------------------------------|
E|-------------------------------|-------------------------------|
  ne- ver care,                   But to love her is to need  her

Verse:
G|------- ------- ------- -------|4------ ----4-- 5------ -------|
D|5-----------5---7-----------7--|-------------------------------|
A|-------------------------------|-------------------------------|
E|-------------------------------|-------------------------------|
  eve  -  ry- where,              knowing that love   is  to  share,
  Oooooooooooooooooooooooooooooooooooooooooooooooo

G|------- ------- ------- -------|4------ ----4-- 5-----5 -------|
D|5-----------5---7-----------7--|------------------------7---5--|
A|-------------------------------|-------------------------------|
E|-------------------------------|-------------------------------|
                                  each one belie  -   ving that love
  Oooooooooooooooooooooooooooooooooooooooooooooooo

G|------- ------- 4------ -------|------- ------- 4------ -------|
D|4-----------4------------------|4-----------4------------------|
A|-------------------------------|-------------------------------|
E|-------------------------------|-------------------------------|
      ne- ver dies,               Watching her eyes,          and
  Oooooooooooooooooooooooo        Oooooooooooooooooooooooo

G|------- ------- ------- -------|------- --4-5-- 7------ -------|
D|----------------7--------------|7-------7----------------------|
A|7------------------------------|------------------------8------|
E|-------------------------------|-------------------------------|
  hoping  I'm al  -   ways    there                   I  want her
  Ooooooooooooooooooooooooooooooooooooooooooooooooooooooooooooooo
Bridge:
G|------- ------- ------- -------|5------ ----5-- 7------ -------|
D|8---------------5--------------|-------------------------------|
A|-------------------------------|-------------------------------|
E|-------------------------------|-------------------------------|
  everywhere,             and if  she's beside me, I know I   need


G|------- ------- ------- -------|5------ ----5-- 7------ -------|
D|5-----------5---5-----------5--|-------------------------------|
A|-------------------------------|-------------------------------|
E|-------------------------------|-------------------------------|
  ne- ver care,                   But to love her is to need  her

Verse:
G|------- ------- ------- -------|------- ------- ------- -------|
D|5-----------5---7-------7------|9-----------9---10------10--\--|
A|-------------------------------|-------------------------------|
E|-------------------------------|-------------------------------|
  eve  -  ry- where,              knowing that love   is  to  share,
  Oooooooooooooooooooooooooooooooooooooooooooooooo

G|------- ------- ------- -------|4------ ----4-- 5------ -------|
D|5-----------5---7-----------7--|-------------------------------|
A|-------------------------------|-------------------------------|
E|-------------------------------|-------------------------------|
                                  each one belie  -   ving that love
  Oooooooooooooooooooooooooooooooooooooooooooooooo

G|------- ------- 4------ -------|------- ------- 4------ -------|
D|4-----------4------------------|4-----------4------------------|
A|-------------------------------|-------------------------------|
E|-------------------------------|-------------------------------|
      ne- ver dies,               Watching her eyes,          and
  Oooooooooooooooooooooooo        Oooooooooooooooooooooooo

G|------- ------- ------- -------|------4 5------ 7------ 7------|
D|----------------7-----------7--|7-----------7------------------|
A|7-----------7------------------|-------------------------------|
E|-------------------------------|-------------------------------|
  hoping  I'm al  -   ways    there                   I  will be
  Ooooooooooooooooooooooooooooooooooooooooooooooooooooooooooooooo
Outro:
G|------- ------- ------- -------|4------ ----4-- 5------ ----5--|
D|5-----------5---7-----------7--|-------------------------------|
A|-------------------------------|-------------------------------|
E|-------------------------------|-------------------------------|
  there,                      and eve  -  ry- where,
  Ooooooooooooooooooooooooooooooooooooooooooooooooooooooooooooooo

G|------- ------- ------- -------|------- ------- ------- -------|
D|5---------------7-----------7--|9-----------9---10----------10\|
A|-------------------------------|-------------------------------|
E|-------------------------------|-------------------------------|
  Here,           there,      and eve  -  ry- where!
  Ooooooooooooooooooooooooooooooooooooooooooooooooooooooooooooooo

G|------- ------- ------- -------|
D|5------------------------------|
A|-------------------------------|
E|-------------------------------|
  Ooooooooooooooooooooooooooooooo...


Yellow Submarine

Verse 1:
|----------|----------------|
|----------|----------------|
|-------4--|-2--------------|
|-2--------|-------------2--|
In the town where I was born

|----------|-----------------|
|-1--------|-----------------|
|-------0--|---------------4-|
|----------|-2---------------|
Lived a man who sailed to sea

|-----------|----------------|
|-----------|----------------|
|-------4---|-2--------------|
|-2---------|-------------2--|
 And he told  us of his life

|-----------|-------------|
|-1---------|-------------|
|-------0---|-----------4-|
|-----------|---2---------|
 In the land of submarines

Verse 2:

|-----------|----------------|
|-----------|----------------|
|-------4---|-2--------------|
|-2---------|-------------2--|
 So we sailed up to the sun

|------------|---------------|
|-1----------|---------------|
|-------0----|-------------4-|
|------------|-2-------------|
Till we found the sea of green

|------------|----------------|
|------------|----------------|
|-------4----|-2--------------|
|-2----------|-------------2--|
And we lived  beneath the waves

|------------|----------|
|-1----------|----------|
|-------0----|--------4-|
|------------|--2-------|
In our yellow  submarine

Chorus:

|-------------------|-------------------|
|-------------------|-------------------|
|-------------------|-4---4---4---4---4-|
|-2---2---2---2---2-|-------------------|
  We all live in our  yellow  submarine

|-------------------|-------------------|
|-------------------|-------------------|
|-4---4---4---4---4-|-------------------|
|-------------------|-2---2---2---2---2-|
 Yellow   submarine,  yellow  submarine

|-------------------|-------------------|
|-------------------|-------------------|
|-------------------|-4---4---4---4---4-|
|-2---2---2---2---2-|-------------------|
  We all live in our  yellow  submarine

|-------------------|---------------------|
|-------------------|---------------------|
|-4---4---4---4---4-|---------------------|
|-------------------|-2---2---2---2---2---|
 Yellow   submarine,  yellow  submarine

Verse 3:

|------------|----------------|
|------------|----------------|
|-------4----|-2--------------|
|-2----------|-------------2--|
 And our friends are all on board

|------------|----------|
|-1----------|----------|
|-------0----|--------4-|
|------------|--2-------|
 Many more of  them live next door

|------------|----------------|
|------------|----------------|
|-------4----|-2--------------|
|-2----------|-------------2--|
 And the band     begins to play

(Bands Play)

Chorus:

|-------------------|-------------------|
|-------------------|-------------------|
|-------------------|-4---4---4---4---4-|
|-2---2---2---2---2-|-------------------|
  We all live in our  yellow  submarine

|-------------------|-------------------|
|-------------------|-------------------|
|-4---4---4---4---4-|-------------------|
|-------------------|-2---2---2---2---2-|
 Yellow   submarine,  yellow  submarine

|-------------------|-------------------|
|-------------------|-------------------|
|-------------------|-4---4---4---4---4-|
|-2---2---2---2---2-|-------------------|
  We all live in our  yellow  submarine

|-------------------|---------------------|
|-------------------|---------------------|
|-4---4---4---4---4-|---------------------|
|-------------------|-2---2---2---2---2---|
 Yellow   submarine,  yellow  submarine

Midle:

|------------|----------------|
|------------|----------------|
|-------4----|-2--------------|
|-2----------|-------------2--|

|------------|------------------|
|-1----------|------------------|
|-------0----|--------4---------|
|------------|--2---------------|
|------------|------------------|
|------------|------------------|
|-------4----|-2----------------|
|-2----------|-------------2----|

|------------|----------|
|-1----------|----------|
|-------0----|--------4-|
|------------|--2-------|

Verse 4:

|-----------|----------------|
|-----------|----------------|
|-------4---|-2--------------|
|-2---------|-------------2--|
 As we live   a life of ease

|-------------|---------------|
|-1-----------|---------------|
|--------0----|------------4--|
|-------------|-2-------------|
Everyone of us has all we need

|-----------|----------------|
|-----------|----------------|
|-------4---|-2--------------|
|-2---------|-------------2--|
 Sky of blue and sea of green

|-------------|---------------|
|-1-----------|---------------|
|--------0----|------------4--|
|-------------|-2-------------|
 In our yellow   submarine

Chorus:

|-------------------|-------------------|
|-------------------|-------------------|
|-------------------|-4---4---4---4---4-|
|-2---2---2---2---2-|-------------------|
  We all live in our  yellow  submarine

|-------------------|-------------------|
|-------------------|-------------------|
|-4---4---4---4---4-|-------------------|
|-------------------|-2---2---2---2---2-|
 Yellow   submarine,  yellow  submarine

|-------------------|-------------------|
|-------------------|-------------------|
|-------------------|-4---4---4---4---4-|
|-2---2---2---2---2-|-------------------|
  We all live in our  yellow  submarine

|-------------------|---------------------|
|-------------------|---------------------|
|-4---4---4---4---4-|---------------------|
|-------------------|-2---2---2---2---2---|
 Yellow   submarine,  yellow  submarine

Fade Out...

She Said She Said

Intro:
G|------- ------- ------- -------|------- ------- ------- -------|
D|-------------------------------|-------------------------------|
A|-------------------------------|-------------------------------|
E|-------------------------------|-------------------------------|

G|------- ------- ------- -------|------- ------- ------- -------|
D|-------------------------------|-------------------------------|
A|13------13------13--13--13-----|13------1313131313131313131313\|
E|------------------------------13-------------------------------|


Verse:
G|------- 3------ ------- -------|------- ------- ------- -------|
D|----------------6---6-------8--|------------------------5---8--|
A|1------------------------------|6---------------6---8----------|
E|-------------------------------|-------------------------------|
  She     said:                                  'I  know what it's


G|------- ------- ------- -------|------- ------- ------- -------|
D|8---------------6---6----------|------------------------5---8--|
A|-------------------------------|6---------------6---8----------|
E|-------------------------------|-------------------------------|
  like to    be   dead,                           I  know what it


G|------- ------- ------- -------|------- ------- ------- -------|
D|8---------------6---6----------|------------------------5---8--|
A|-------------------------------|6---------------6---8----------|
E|-------------------------------|-------------------------------|
  is   to    be   sad'                                    And she's


G|------- ------- ------- -------|------- ------- ------- -------|
D|8-----------6------------------|------------8------------------|
A|-------------------------------|6-------------------------8-8--|
E|-------------------------------|-------------------------------|
  making  me  feel    like   I've ne- ver been born


G|------- ------- ------- -------|------- ------- ------- -------|
D|8-----------6------------------|------------8--------------8\--|
A|-------------------------------|6------------------------------|
E|-------------------------------|-------------------------------|


Verse:
G|------- 3------ ------- -------|------- ------- ------- -------|
D|----------------6---6----------|------------------------5---6--|
A|1------------------------------|6---------------6---8----------|
E|-------------------------------|-------------------------------|
  I       said:                                  'Who put all those


G|------- ------- ------- -------|------- ------- ------- -------|
D|8-------8-------6---6----------|------------------------5---8--|
A|-------------------------------|6---------------6---8----------|
E|-------------------------------|-------------------------------|
  things in  your head?                           Things  make me
                                                      that

G|------- ------- ------- -------|------- ------- ------- -------|
D|8---------------6---6----------|------------------------5---8--|
A|-------------------------------|6---------------6---8----------|
E|-------------------------------|-------------------------------|
  feel that  I'm  mad'                                    And she's


G|------- ------- ------- -------|------- ------- ------- -------|
D|8-----------6------------------|------------8------------------|
A|-------------------------------|6---------------------------8--|
E|-------------------------------|-------------------------------|
  making  me  feel    like   I've ne- ver been born


G|------- ------- ------- -------|------- ------- ------- -------|
D|8-----------6------------------|------------8------------------|
A|-------------------------------|6---------------------------8--|
E|-------------------------------|-------------------------------|


Bridge:
G|------- ------- ------- -------|------- ------- ------- -------|
D|8-------8-------6-------6------|8-------8-------8-------8------|
A|----------------------------8--|------------8------------------|
E|-------------------------------|-------------------------------|
  She     said:  'You don't understand    I   said'   I       said:
                                      what
3/4 time
G|------- ------- -------|------- ------- -------|------- ------- 5------|
D|6-------6-------6------|8----------------------|--------6--------------|
A|--------------------8--|----------------8------|8----------------------|
E|-----------------------|--------10-------------|-----------------------|
 'No, no,     no,     you're      When I  was a   boy,
                          wrong,
6/4 time                                         3/4 time
G|------- ------- ------- ------- ------- -------|------- ------- -------|
D|8-----------------------8----------------------|--------5-------8------|
A|----------------8-----------------------8------|6----------------------|
E|--------10----------------------10-------------|-----------------------|
                          every - thing   was     right,

6/4 time                                         3/4 time
G|------- ------- ------- ------- ------- -------|------- ------- -------|
D|8-----------------------8----------------------|--------5-------8------|
A|----------------8-----------------------8------|6----------------------|
E|--------10----------------------10-------------|-----------------------|
                          every - thing   was     right
4/4 time
Verse:
G|------- ------- ------- -------|------- ------- ------- -------|
D|8-------8-------6---6----------|------------------------5---8--|
A|-------------------------------|6-------6-------6---8----------|
E|-------------------------------|-------------------------------|
  I       said:                                  'Even though you


G|------- ------- ------- -------|------- ------- ------- -------|
D|8-------8-------6---6----------|------------------------5---8--|
A|-------------------------------|6---------------6---8----------|
E|-------------------------------|-------------------------------|
  know what  you  know,                           I  know that I'm


G|------- ------- ------- -------|------- ------- ------- -------|
D|8---------------6---6----------|------------------------5---8--|
A|-------------------------------|6---------------6---8----------|
E|-------------------------------|-------------------------------|
  rea- dy    to   leave,                                  Cause
                                                              you're

G|------- ------- ------- -------|------- ------- ------- -------|
D|8-----------6------------------|------------8------------------|
A|-------------------------------|6---------------------------13\|
E|-------------------------------|-------------------------------|
  making  me  feel    like   I've ne- ver been born'


G|------- ----1-- ------- -------|------- ------- ------- -------|
D|-------------------------------|------------8------------------|
A|1------------------------------|6---------------------------8--|
E|-------------------------------|-------------------------------|


Bridge:
G|------- ------- ------- -------|------- ------- ------- -------|
D|8-------8-------6-------6------|8-------8-------8-------8------|
A|-------------------------------|------------8---------------8--|
E|-------------------------------|-------------------------------|
  She     said:  'You don't understand    I   said'   I       said:
                                      what
3/4 time
G|------- ------- -------|------- ------- -------|------- ------- 5------|
D|6-------6-------6------|8----------------------|--------6--------------|
A|-----------------------|----------------8------|8----------------------|
E|-----------------------|--------10-------------|-----------------------|
 'No, no,     no,     you're      When I  was a   boy,
                          wrong,
6/4 time                                         3/4 time
G|------- ------- ------- ------- ------- -------|------- ------- -------|
D|8-----------------------8----------------------|--------5-------8------|
A|----------------8-----------------------8------|6----------------------|
E|--------10----------------------10-------------|-----------------------|
                          every - thing   was     right,

6/4 time                                         3/4 time
G|------- ------- ------- ------- ------- -------|------- ------- -------|
D|8-----------------------8----------------------|--------5-------8------|
A|----------------8-----------------------8------|6----------------------|
E|--------10----------------------10-------------|-----------------------|
                          every - thing   was     right,
4/4 time
Verse:
G|------- ------- ------- -------|------- ------- ------- -------|
D|8-------8-------6---6-------6--|------------------------5---8--|
A|-------------------------------|6---------------6---8----------|
E|-------------------------------|-------------------------------|
  I       said:                                  'Even though you


G|------- ------- ------- -------|------- ------- ------- -------|
D|8---------------6---6----------|------------------------5---8--|
A|-------------------------------|6---------------6---8----------|
E|-------------------------------|-------------------------------|
  know what  you  know,                           I  know that I'm


G|------- ------- ------- -------|------- ------- ------- -------|
D|8---------------6---6----------|------------------------5---8--|
A|-------------------------------|6---------------6---8----------|
E|-------------------------------|-------------------------------|
  rea- dy    to   leave,                                  Cause
                                                              you're

G|------- ------- ------- -------|------- ------- ------- -------|
D|8-----------6------------------|------------8------------------|
A|-------------------------------|6-------------------8---8-8-8--|
E|-------------------------------|-------------------------------|
  making  me  feel    like   I've ne- ver been born'


G|------- ------- ------- -------|------- ------- ------- -------|
D|-------------------------------|------------8-------8---8------|
A|-------------------------------|6---6---6-------------------8--|
E|6-----------4------------------|-------------------------------|


Outro:
G|------- ------- ------- -------|------- ------- ------- -------|
D|8---8---8---8---8---8---8---8--|8---8---8---8---8---8---12\-8--|
A|-------------------------------|-------------------------------|
E|-------------------------------|-------------------------------|
  She     said:                                  'I  know what it's
                                  She     said:

G|------- ------- ------- -------|------- ------- ------- -------|
D|8---8---8---8---8---8---12\-8--|8---8---8---8---8---8---12\-8--|
A|-------------------------------|-------------------------------|
E|-------------------------------|-------------------------------|
  like to    be   dead,                           I  know what it
                  I know what it's like to   be   dead

G|------- ------- ------- -------|------- ------- ------- -------|
D|8---8---8---8---8---8---12\-8--|8---8---8---8---8---8---12\-8--|
A|-------------------------------|-------------------------------|
E|-------------------------------|-------------------------------|
  is   to    be   sad
                  I know what it's like to   be   dead
Fade Out..

Good Day Sunshine

Intro:
G|-------------------------------------|
D|-------------------------------------|
A|-7-7-7-7-7-7-7-7-7-7-7-7-7-7-7-7-----|
E|-------------------------------------|

Chorus:
G|-------------------------------------------------------|
D|-------------------------------------------------------|
A|--2--2--2---------------2---2--2--2-------------2------|
E|-----------2--2--2--2-4---4----------2--2--2--4---4----|

G|-----------------------|
D|-----------------------|
A|-----------------------|
E|--0--0--0--0--0--0--0--|

Verse :

G|-------------------------------------------------------------|
D|--------------------------------------------4--6--7--7--7--7-|
A|----------------------------4-6-7--7--7--7-------------------|
E|--5--5-4-3-2--2--7--7--7--7----------------------------------|

G|-------------------------------------------------------------|
D|--------------------------------------------4--6--7--7--7--7-|
A|----------------------------4-6-7--7--7--7-------------------|
E|--5--5-4-3-2--2--7--7--7--7----------------------------------|

Chorus again :

G|-------------------------------------------------------|
D|-------------------------------------------------------|
A|--2--2--2---------------2---2--2--2-------------2------|
E|-----------2--2--2--2-4---4----------2--2--2--4---4----|

G|-----------------------|
D|-----------------------|
A|-----------------------|
E|--0--0--0--0--0--0--0--|

Verse (Only One Time) :

G|-------------------------------------------------------------|
D|--------------------------------------------4--6--7--7--7--7-|
A|----------------------------4-6-7--7--7--7-------------------|
E|--5--5-4-3-2--2--7--7--7--7----------------------------------|

Piano Solo :

G|-------------------------------------------4-6-7--7--7--7----|
D|----------------------------4-6-7--7--7--7-------------------|
A|--5--5-4-3-2--2--7--7--7--7----------------------------------|
E|-------------------------------------------------------------|

Chorus again (how many time did they sang the chorus?!?) :

G|-------------------------------------------------------|
D|-------------------------------------------------------|
A|--2--2--2---------------2---2--2--2-------------2------|
E|-----------2--2--2--2-4---4----------2--2--2--4---4----|

G|-----------------------|
D|-----------------------|
A|-----------------------|
E|--0--0--0--0--0--0--0--|

Verse :

G|-------------------------------------------------------------|
D|--------------------------------------------4--6--7--7--7--7-|
A|----------------------------4-6-7--7--7--7-------------------|
E|--5--5-4-3-2--2--7--7--7--7----------------------------------|

G|-------------------------------------------------------------|
D|--------------------------------------------4--6--7--7--7--7-|
A|----------------------------4-6-7--7--7--7-------------------|
E|--5--5-4-3-2--2--7--7--7--7----------------------------------|

Chorus (...damn....again...but with a slight change!) :

G|-------------------------------------------------------|
D|-------------------------------------------------------|
A|--2--2--2---------------2---2--2--2-------------2------|
E|-----------2--2--2--2-4---4----------2--2--2--4---4----|

G|-----------------------|
D|-----------------------|
A|-----------------------|
E|--0--0--0--0--0--0--0--|

G|-------------------------------------------------------|
D|-------------------------------------------------------|
A|--2--2--2---------------2---2--2--2-------------2------|
E|-----------2--2--2--2-4---4----------2--2--2--4---4----|

G|--------------------------|
D|--------------------------|
A|-----------------------8--|
E|--0--0--0--0--0--0--0-----|

And Your Bird Can Sing

(This Ones Mad Fast! )

Intro:
G|------- ------- ------- -------|------- ------- ------- -------|
D|-------------------------------|-------------------------------|
A|7-------7-------------------6--|7-------7-------------------6--|
E|----------------7-------9------|----------------7---6---9------|

G|------- ------- ------- -------|------- ------- ------- -------|
D|-------------------------------|-------------------------------|
A|7-------7-------------------6--|7-------7-----7-------------6--|
E|----------------7---7---9------|----------------7---7---9------|
                                                              You

Verse:
G|------- ------- ------- -------|------- ------- ------- -------|
D|-------------------------------|-------------------------------|
A|7-------7-------------------6--|7-------7-------------------6--|
E|--------------7-7---7---9------|----------------7-------9------|
  tell me that you've     every - thing   you     want,
                  got

G|------- ------- ------- -------|------- ------- ------- -------|
D|-------------------------------|-------------------------------|
A|7-------7-------------------7--|--------7-----------6---7------|
E|--------------7-7---7---9------|----------------7-----------7--|
  and     your    bird    can     sing,   But you don't get   me,


G|------- ------- ------- -------|------- ------- ------- -------|
D|-------------------------------|7-------6----------------------|
A|9-------9---------------7---9--|----------------9--------------|
E|----------------9---9----------|-------------------------------|
                                              you don't   get


G|------- ------- ------- -------|------- 9------ ------- -------|
D|----------------6---7---8---9--|--------------6-6---7---8---9--|
A|7-------7----------------------|7------------------------------|
E|-------------------------------|-------------------------------|
          me!

Verse:
G|------- ------- ------- -------|------- ------- ------- -------|
D|-------------------------------|-------------------------------|
A|7-------7-------------------6--|7-------7-------------------7--|
E|----------------7---6---9------|----------------7---6---9------|
  You     say     you've  seen    se  -   ven     won  -  ders


G|------- ------- ------- -------|------- ------- ------- -------|
D|-------------------------------|-------------------------------|
A|7-------7-------------------6--|7-------7-----------6---7------|
E|----------------7---6---9------|----------------7--------------|
  and     your    bird    is      green,  But you can't see   me,


G|------- ------- ------- -------|------- ------- ------- -------|
D|-------------------------------|7-------6----------------------|
A|9-------9-----------7---9------|----------------9---7---6------|
E|----------------9--------------|-------------------------------|
                                              you can't   see


G|------- 9------ ------- -------|------- 9------ ------- -------|
D|--------------6-6---7---8---9--|--------------6-6---7---8---9--|
A|7------------------------------|7------------------------------|
E|-------------------------------|-------------------------------|
          me!

Bridge:
G|------- ------- ------- -------|------- ------- ------- -------|
D|6-------6-------------------5--|--------5-------------------4--|
A|--------------------4---6------|--------------------4---6------|
E|----------------4--------------|----------------4--------------|
  When your   prized  pos  -  ses  -  sions


G|------- ------- ------- -------|------- ------- ------- -------|
D|--------4-------------------3--|--------3----------------------|
A|--------------------4---6------|--------------------4---6---7--|
E|----------------4--------------|----------------4--------------|
  start   to  weigh   you     down,


G|------- ------- ------- -------|------- ------- ------- -------|
D|-------------------------------|-------------------------------|
A|7-------7-------4-----------7--|9-------9---------------7---9--|
E|--------------------7---4------|----------------9---9----------|
  Look in     my      di  -   re   -  ction,          I'll be round,


G|------- ------- ------- -------|------- ------- ------- -------|
D|-------------------------------|9-------9-------9---9---9---9--|
A|9-----------7-------9----------|--------------9----------------|
E|--------9-------------------9--|-------------------------------|
                      I'll be round

Verse (solo):
G|------- ------- ------- 9------|------- ------- ------- 9------|
D|----------------9--------------|----------------9--------------|
A|7-------7----------------------|7-------7----------------------|
E|-------------------------------|-------------------------------|

G|------- ------- ------- 9------|------- ------- ------- 9------|
D|----------------9--------------|----------------9--------------|
A|7-------7----------------------|7-------7----------------------|
E|-------------------------------|-------------------------------|

G|------- ------- ------- 11-----|------- ------- ------- -------|
D|----------------11-------------|9\7-----6----------------------|
A|9-------9----------------------|----------------9---7---6---7--|
E|-------------------------------|-------------------------------|

G|------- 9------ ------- -------|------- 9------ ------- -------|
D|--------------6-6---7---8---9--|--------------6-6---7---8---9--|
A|7------------------------------|7------------------------------|
E|-------------------------------|-------------------------------|


Bridge:
G|------- ------- ------- -------|------- ------- ------- -------|
D|6-------6-------------------5--|--------5-------------------4--|
A|--------------------4---6------|--------------------4---6------|
E|----------------4--------------|----------------4--------------|
  When your   bird    is      bro  -  ken,


G|------- ------- ------- -------|------- ------- ------- -------|
D|4-------4----------------------|3-------3----------------------|
A|--------------------4---6------|--------------------4---6------|
E|----------------4--------------|----------------4-----------4--|
  will it     bring   you     down?


G|------- ------- ------- -------|------- ------- ------- -------|
D|-------------------------------|-------------------------------|
A|7-------7---------------4---7--|9-------9-----------7---9---9--|
E|----------------4---7----------|----------------9--------------|
  You may     be      a   -   wo   -  ken,            I'll be round,


G|------- ------- ------- -------|------- ------- ------- -------|
D|-------------------------------|9-------9-----9-9---9---9---9--|
A|--------7---9-----------7---9--|-------------------------------|
E|----9---------------9----------|-------------------------------|
                      I'll be round                           You

Verse:
G|------- ------- ------- -------|------- ------- ------- -------|
D|-------------------------------|-------------------------------|
A|7-------7-------6-------6------|-------------------------------|
E|-------------------------------|9-------9-------7-------7------|
  tell me that you've     every   sound   there   is,
                  heard

G|------- ------- ----6-/ 9------|------- ------- ------- -------|
D|----------------9--------------|-------------------------------|
A|7-------7-------------------7--|--------7---------------7---6--|
E|-------------------------------|----------------7---9----------|
  and     your    bird    can     swing,  But you can't hear  me,


G|------- ------- ------- -------|------- ------- ------- -------|
D|-------------------------------|7-------6----------------------|
A|9-------9-----------7---9---7--|----------------9---7---6------|
E|----------------9--------------|----------------------------9--|
                                              you can't   hear


G|------- ------- ------- -------|------- 9------ ------- -------|
D|----------------6---7---8---9--|--------------6-6---7---8---9--|
A|7-------7----------------------|7------------------------------|
E|-------------------------------|-------------------------------|
          me!

Verse (solo):
G|------- 9------ ------- -------|------- 9------ ------- -------|
D|--------------6-6---7---8---9--|--------------6-6---7---8---9--|
A|7------------------------------|7------------------------------|
E|-------------------------------|-------------------------------|

G|------- 9------ ------- -------|------- 9------ ------- -------|
D|--------------6-6---7---8---9--|--------------6-6---7---8---9--|
A|7------------------------------|7------------------------------|
E|-------------------------------|-------------------------------|

G|------- ------- ------- -------|------- ------- ------- -------|
D|-------------------------------|7-------6----------------------|
A|9-------9-----------7---9------|----------------9---9---9---7--|
E|--------------9-9--------------|-------------------------------|

G|------- 9------ ------- -------|------- 9------ ------- -------|
D|--------------6-6---7---8---9--|--------------6-6---7---8---9--|
A|7------------------------------|7------------------------------|
E|-------------------------------|-------------------------------|


Outro:
G|------- ------- ------- -------|------- ------- ------- -------|
D|-------------------------------|-------------------------------|
A|7-------7-------------------6--|7-------7-------------------6--|
E|--------------7-7---7---9------|--------------7-7---7---9------|

G|------- ------- ------- -------|------- ------- 9-9---- 9-9----|
D|-------------------------------|-------------------------------|
A|7-------7-------------------6--|7------------------------------|
E|--------------7-7---7---9------|-------------------------------|

G|9-9---- ------- ------- -------|------- ------- ------- -------|
D|-------------------------------|-------------------------------|
A|-------------------------------|-------------------------------|
E|-------------------------------|-------------------------------|


For No One

(Listen Closely For Timing)

Begin at 0:23
G------------------5-6----------------5-6---------|
D-----6--------4-6-----6----------4-6------4--4-4-|
A---4---4--6-7-----------4--4-6-7-----------------|
E-------------------------------------------------|

G---------------------------------|--------------------------------------|
D-------------------------------9-|-----9-8--8-8-6--6-4-----7-8-9--9-----|
A---2--2-1--------------------9---|-9-9------------------7-----------9---|
E-----------4--4-2--2-0--5--7-----|------------------------------------7-|

G------------------5-6----------------5-6------|
D-----6--------4-6-----6----------4-6------4-4-|
A---4---4--6-7-----------4--4-6-7--------------|
E----------------------------------------------|

G---------------------|-----------------------------------------------------|
D-------------------9-|---9--9-9\8--8-8\6--6-6-6\4--4-4-4\2--2-2-2--7-7-8-9-|
A---2-1-----------9---|-9---------------------------------------------------|
E-------4-2-0-5-7-----|-----------------------------------------------------|

G-------|
D-9-----|
A---9---|
E-----7-|

G------------------------5-6-----------------5-6------|
D---------6----------4-6------6----------4-6------4-4-|
A---4-6-7---4--4-6-7------------4--4-6-7--------------|
E-----------------------------------------------------|


Dr. Robert

Intro
|2-----------2-----------0-------|2-----------2-----------1-------|
|----------------2---------------|----------------2---------------|
|--------------------------------|--------------------------------|
|--------------------------------|--------------------------------|

|2-----------2-------------------|2-----------2-----------0-------|
|----------------2-----------2---|----------------2---------------|
|--------------------------------|--------------------------------|
|--------------------------------|--------------------------------|

Verse 1
|2-----------2-------------------|2-----------2-------------------|
|----------------2-----------2---|----------------2-------2-------|
|--------------------------------|--------------------------------|
|--------------------------------|--------------------------------|

|2-----------2-------------------|2-----------2-------------------|
|----------------2-----------2---|----------------2-------2-------|
|--------------------------------|--------------------------------|
|--------------------------------|--------------------------------|

|2-----------2-------------------|2-----------2-------------------|
|----------------2-----------2---|----------------2-------2-------|
|--------------------------------|--------------------------------|
|--------------------------------|--------------------------------|

|2-----------2-------------------|2-----------2-----------0-------|
|----------------2-----------2---|----------------2---------------|
|--------------------------------|--------------------------------|
|--------------------------------|--------------------------------|

chorus 1
|--------------------------------|--------------------------------|
|4-----------4-------------------|4-----------4-------------------|
|----------------4-----------4---|----------------0---2---4-------|
|--------------------------------|--------------------------------|

|--------------------------------|--------------------------------|
|4-----------4-------------------|4-----------4-------------------|
|----------------4-----------4---|----------------0---2---4-------|
|--------------------------------|--------------------------------|

|--------------------------------|--------------------------------|
|4-----------4-------------------|4-----------4-----------4-------|
|----------------4-----------4---|----------------4---------------|
|--------------------------------|--------------------------------|

|--------------------------------|--------------------------------|
|2-----------0-------------------|4-----------4-----------4-------|
|----------------0---------------|----------------4---------------|
|------------------------0-------|--------------------------------|

|--------------------------------|------------------------4-------|
|--------------------------------|----------------4---------------|
|2-----------2-----------0-------|2-----------2-------------------|
|----------------2---------------|--------------------------------|

repeat verse 1

Chorus 2
|--------------------------------|--------------------------------|
|4-----------4-------------------|4-----------4-------------------|
|----------------4-----------4---|----------------0---2---4-------|
|--------------------------------|--------------------------------|

|--------------------------------|--------------------------------|
|4-----------4-------------------|4-----------4-------------------|
|----------------4-----------4---|----------------0---2---4-------|
|--------------------------------|--------------------------------|

|--------------------------------|--------------------------------|
|4-----------4-------------------|4-----------4-----------4-------|
|----------------4-----------4---|----------------4---------------|
|--------------------------------|--------------------------------|

|--------------------------------|--------------------------------|
|2-----------0-------------------|4-----------4-----------4-------|
|----------------0---------------|----------------4---------------|
|------------------------0-------|--------------------------------|

|--------------------------------|--------------------------------|
|----------------4---------------|--------------------------------|
|2-----------2-------------------|2-----------2---2---------------|
|--------------------------------|--------------------------------|

Bridge
|4---------------4-------4-------|4---------------4---------------|
|--------------------------------|--------------------------------|
|--------------------------------|--------------------------------|
|--------------------------------|--------------------------------|

|4-------4-------4-------4-------|4---------------4-------------4-|
|--------------------------------|--------------------------------|
|--------------------------------|--------------------------------|
|--------------------------------|--------------------------------|

|4-------4-------4-------4-------|4---------------4---------------|
|--------------------------------|--------------------------------|
|--------------------------------|--------------------------------|
|--------------------------------|--------------------------------|

|4-------4-------4-------4-------|4---------------4---------------|
|--------------------------------|--------------------------------|
|--------------------------------|--------------------------------|
|--------------------------------|--------------------------------|


Repeat Verse 1

Repeat Chorus 2

Repeat Bridge


outro
|2-------2---------------0-------|2-----------2---2---------------|
|----------------2---------------|--------------------0---2-------|
|--------------------------------|--------------------------------|
|--------------------------------|--------------------------------|

|2-----------2-------------------|2-----------2---2---------------|
|----------------2-------0-------|--------------------0---2-------|
|--------------------------------|--------------------------------|
|--------------------------------|--------------------------------|

|2-----------2-------------------|2-----------2---------------0---|
|----------------2-----------2---|--------------------0---2-------|
|--------------------------------|----------------0---------------|
|--------------------------------|--------------------------------|

|2-----------2-------------------|2-----------2-------------------|
|----------------2-----------2---|----------------2-----------2---|
|--------------------------------|--------------------------------|
|--------------------------------|--------------------------------|

|2-----------2-----------1-------|2-----------2-------------------|
|----------------2---------------|----------------2---------------|
|--------------------------------|--------------------------------|
|--------------------------------|--------------------------------|

|--------------------------------|--------------------------------|
|4-------4-------4---------------|4---------------4---------------|
|------------------------4-------|--------------------------------|
|--------------------------------|--------------------------------|

|4-----------------------4-------|--------------------------------|
|----------------4---------------|--------------------------------|
|--------------------------------|--------------------------------|
|--------------------------------|--------------------------------|

I Want To Tell You

Intro:
G|------ ------ ------ ------|------ ------ ------ ------|
D|---------------------------|---------------------------|
A|---------------------------|---------------------------|
E|---------------------------|---------------------------|
...fade in


G|------ ------ ------ ------|------ ------ ------ ------|
D|---------------------------|---------------------------|
A|---------------------------|---------------------------|
E|---------------------------|---------------------------|

G|------ ------ ------ ------|------ ------ ------ ------|
D|---------------------------|---------------------------|
A|---------------------------|---------------------------|
E|---------------------------|---------------------------|

G|------ ------ ------ ------|------ ------ ------ ------|
D|---------------------------|--------------7-7-7--7-7-7-|
A|---------------------------|---------------------------|
E|---------------------------|---------------------------|


Verse:
G|------ ------ ------ ------|------ ------ ------ ------|
D|7------7------7------7-----|7------7------7------7-----|
A|-----------7-------------7-|-----------7-------------7-|
E|---------------------------|---------------------------|
             I  want to    tell          you,


G|------ ------ ------ ------|------ ------ ------ ------|
D|7------7------7------7-----|7------7------9------9-----|
A|-----------7-------------7-|-----------7-------------9-|
E|---------------------------|---------------------------|
             my head is    filled with   things to     say


G|------ ------ ------ ------|------ ------ ------ ------|
D|9------9------9------9-----|---------------------------|
A|-----------9-------------9-|7------7------7------7-----|
E|---------------------------|-----------7-------------7-|
                                            When you're here,


G|------ ------ ------ ------|------ ------ ------ ------|
D|---------------------------|---------------------------|
A|7------7------7------7-----|7------7------7------7-----|
E|-----------7-------------7-|-----------7-------------7-|
                                            all those  words,


G|------ ------ ------ ------|------ ------ ------ ------|
D|---------------------------|7---7----------------------|
A|7------7------7------7-----|---------------------------|
E|-----------7-------------7-|---------------------------|
      they   seem   to        slip a  -  way


G|------ ------ ------ ------|
D|---------------------------|
A|---------------------------|
E|---------------------------|


Verse:
G|------ ------ ------ ------|------ ------ ------ ------|
D|7------7------7------7-----|7------7------7------7-----|
A|-----------7-------------7-|-----------7-------------7-|
E|---------------------------|---------------------------|
             When
                I   get    near          you,

G|------ ------ ------ ------|------ ------ ------ ------|
D|7------7------7------7-----|7------7------9------9-----|
A|-----------7-------------7-|-------------------------9-|
E|---------------------------|---------------------------|
            the games be - gin    to     drag   me     down


G|------ ------ ------ ------|------ ------ ------ ------|
D|9------9------9------9-----|---------------------------|
A|-----------9-------------9-|7------7------7------7-----|
E|---------------------------|-----------7-------------7-|
                                            It's all   right,


G|------ ------ ------ ------|------ ------ ------ ------|
D|---------------------------|---------------------------|
A|7------7------7------7-----|7------7------7------7-----|
E|-----------7-------------7-|-----------7-------------7-|
                                            I'll make  you


G|------ ------ ------ ------|------ ------ ------ ------|
D|---------------------------|7--------------------------|
A|7------7------7------7-----|---------------------------|
E|-----------7-------------7-|---------------------------|
      may  - be     next      time a  -  round


G|------ ------ ------ ------|
D|---------------------------|
A|---------------------------|
E|---------------------------|


Bridge:
G|------ ------ ------ ------|------ ------ ------ ------|
D|9------9------9------9---8-|9------9------9------9---8-|
A|---------------------------|---------------------------|
E|---------------------------|---------------------------|
             But if I      seem      to  act    un  -  kind,


G|------ ------ ------ ------|------ ------ ------ ------|
D|7--------------------7---7-|9------9------9------9---8-|
A|-------9------7--------7---|---------------------------|
E|---------------------------|---------------------------|
             it's   on  -  ly me, it's   not    my     mind,


G|------ ------ ------ ------|------ ------ ------ ------|
D|9------9------9------9---8-|9------9------9------9-----|
A|---------------------------|---------------------------|
E|---------------------------|---------------------------|
                                     That is    con-


G|------ ------ ------ ------|------ ------ ------ ------|
D|7--------------------------|---------------------------|
A|---------------------------|---------------------------|
E|---------------------------|---------------------------|
  fu- sing   things

Verse:
G|------ ------ ------ ------|------ ------ ------ ------|
D|7------7------7------7-----|7------7------7------7-----|
A|-----------7-------------7-|-----------7-------------7-|
E|---------------------------|---------------------------|
             I  want to    tell          you,


G|------ ------ ------ ------|------ ------ ------ ------|
D|7------7------7------7-----|7------7------9------9-----|
A|-----------7-------------7-|-----------7-------------9-|
E|---------------------------|---------------------------|
             I  feel hung  up,    and I  don't  know   why


G|------ ------ ------ ------|------ ------ ------ ------|
D|9------9------9------9-----|---------------------------|
A|-----------9-----------9-8-|7------7------7------7-----|
E|---------------------------|-----------7-------------7-|
                                            I   don't  mind,


G|------ ------ ------ ------|------ ------ ------ ------|
D|---------------------------|---------------------------|
A|7------7------7------7-----|7------7------7------7-----|
E|-----------7-------------7-|-----------7-------------7-|
                                            I   could  wait


G|------ ------ ------ ------|------ ------ ------ ------|
D|---------------------------|7--------------------------|
A|7------7------7------7-----|---------------------------|
E|-----------7-------------7-|---------------------------|
      for -  e  -   ver       I've got   time


G|------ ------ ------ ------|
D|---------------------------|
A|---------------------------|
E|---------------------------|


Bridge:
G|------ ------ ------ ------|------ ------ ------ ------|
D|9------9------9------9---8-|9------9------9------9---8-|
A|---------------------------|---------------------------|
E|---------------------------|---------------------------|
             Some - times  I  wish I     knew   you    well,


G|------ ------ ------ ------|------ ------ ------ ------|
D|7--------------------7---7-|9------9------9------9---8-|
A|-------9------7--------7---|---------------------------|
E|---------------------------|---------------------------|
                  then I   could  speak my  mind and   tell


G|------ ------ ------ ------|------ ------ ------ ------|
D|9------9------9------9---8-|9------9------9------9---8-|
A|---------------------------|---------------------------|
E|---------------------------|---------------------------|
      you,                           May- be    you'd  un-


G|------ ------ ------ ------|------ ------ ------ ------|
D|7--------------------------|---------------------------|
A|---------------------------|---------------------------|
E|---------------------------|---------------------------|
      der -  stand

Verse:
G|------ ------ ------ ------|------ ------ ------ ------|
D|7------7------7------7-----|7------7------7------7-----|
A|-----------7-------------7-|-----------7-------------7-|
E|---------------------------|---------------------------|
             I  want to    tell          you,


G|------ ------ ------ ------|------ ------ ------ ------|
D|7------7------7------7-----|7------7------9------9-----|
A|-----------7-------------7-|-----------7-------------9-|
E|---------------------------|---------------------------|
             I  feel hung  up,    and I  don't  know   why


G|------ ------ ------ ------|------ ------ ------ ------|
D|9------9------9------9-----|---------------------------|
A|-----------9-----------9-8-|7------7------7------7-----|
E|---------------------------|-----------7-------------7-|
                                            I   don't  mind,


G|------ ------ ------ ------|------ ------ ------ ------|
D|---------------------------|---------------------------|
A|7------7------7------7-----|7------7------7------7-----|
E|-----------7-------------7-|-----------7-------------7-|
                                            I   could  wait


G|------ ------ ------ ------|------ ------ ------ ------|
D|---------------------------|7--------------------------|
A|7------7------7------7-----|---------------------------|
E|-----------7-------------7-|---------------------------|
      for -  e  -   ver       I've got   time


G|------ ------ 9-9-9- 9-----|
D|---------------------------|
A|---------------------------|
E|---------------------------|


Outro:
G|------ ------ ------ ------|------ ------ 9-9-9- 9-----|
D|7--------------------------|---------------------------|
A|---------------------------|---------------------------|
E|---------------------------|---------------------------|

G|------ ------ ------ ------|------ ------ ------ ------|
D|7----------7---------------|--7-7--7------7---7------7-|
A|---------------------------|---------------------------|
E|---------------------------|---------------------------|
  I've got   time
repeat and fade...


Got To Get You Into My Life

Intro:
G|------ ------ ------ ------|------ ------ ------ ------|
D|5--------------------------|---------------------------|
A|---------------------------|---------------------------|
E|3--------------------------|---------------------------|

G|------ ------ ------ ------|------ ------ ------ ------|
D|---------------------------|---------------------------|
A|---------------------------|---------------------------|
E|---------------------------|---------------------------|


Verse:
G|------ ------ ------ ------|------ ------ ------ ------|
D|5------5------5------5-----|5------5------5------5-----|
A|---------------------------|-------------------------5-|
E|---------------------------|---------------------------|
      I  was        I  took       I  didn't     what would
           alone,        a ride,         know      I   find

G|------ ------ ------ ------|------ ------ ------ ------|
D|5------5------5------5-----|5------5------5------5-----|
A|-------------------------5-|-------------------------5-|
E|---------------------------|---------------------------|
      there,


G|------ ------ ------ ------|------ ------ ------ ------|
D|5------5------5------5-----|5------5------5----------3-|
A|-------------------------5-|------------------2--5-5---|
E|---------------------------|----------------3----------|
      Another road  where  I      could another kind of mind
                       maybe         see

G|------ ------ ------ ------|------ ------ ------ ------|
D|5------5------5------5-----|5------5------5------5-----|
A|-------------------------5-|-------------------------5-|
E|---------------------------|---------------------------|
      there                                            Ooh,


G|------ ------ ------ ------|------ ------ ------ ------|
D|---------------------------|---------------------------|
A|---------------------------|---------------------------|
E|7------7------6------6-----|5------5------4------4-----|
                    and I sud  -  denly  see    you,   ooh,


G|------ ------ ------ ------|------ ------ ------ ------|
D|---------------------------|---------------------------|
A|---------------------------|---------------------------|
E|7------7------6------6-----|5------5------4------4-----|
                    did I tell    you I  need   you


G|------ ------ ------ ------|------ ------ ------ ------|
D|---------------------------|---------------------------|
A|---------------------------|--------------5------5-----|
E|8------8------7------7-----|5------5-------------------|
  Eve -  ry  -  sin -  gle -  day           of     my


G|------ ------ ------ ------|------ ------ ------ ------|
D|5--------------------------|---------------------------|
A|---------------------------|---------------------------|
E|---------------------------|---------------------------|
  life?

Verse:
G|------ ------ ------ ------|------ ------ ------ ------|
D|5------5------5------5-----|5------5------5------5-----|
A|-------------------------5-|-------------------------5-|
E|---------------------------|---------------------------|
      You didn't    you didn't    you knew I wanted  to hold
             run,          lie,                    just

G|------ ------ ------ ------|------ ------ ------ ------|
D|5------5------5------5-----|5------5------5------5-----|
A|-------------------------5-|-------------------------5-|
E|---------------------------|---------------------------|
      you,


G|------ ------ ------ ------|------ ------ ------ ------|
D|5------5------5------5-----|5------5------5----------3-|
A|-------------------------5-|------------------2--5-5---|
E|---------------------------|----------------3----------|
      And had gone, you knew time we'd again,   for  have
           you            in         meet          I    told

G|------ ------ ------ ------|------ ------ ------ ------|
D|5------5------5------5-----|5------5------5------5-----|
A|-------------------------5-|-------------------------5-|
E|---------------------------|---------------------------|
      you                                              Ooh,


G|------ ------ ------ ------|------ ------ ------ ------|
D|---------------------------|---------------------------|
A|---------------------------|-------------------------5-|
E|7------7------6------6-----|5------5------4------4-----|
                    you were      to be  near   me,    ooh,
                           meant

G|------ ------ ------ ------|------ ------ ------ ------|
D|---------------------------|---------------------------|
A|---------------------------|---------------------------|
E|7------7------6------6-----|5------5------4------4-----|
                    and I want    you to hear   me


G|------ ------ ------ ------|------ ------ ------ ------|
D|---------------------------|---------------------------|
A|---------------------------|--------------5------5-----|
E|8------8------7------7-----|5------5-------------------|
  Say    we'll  be     to  -  ge  -  ther   eve -  ry


G|------ ------ ------ ------|------ ------ ------ ------|
D|5--------------------------|---------------------------|
A|---------------------------|---------------------------|
E|---------------------------|---------------------------|
  day

Refrain:
G|------ ------ ------ ------|------ ------ ------ ------|
D|5------5------5------5-----|---------------------------|
A|-------------------------5-|3------3------3------3---3-|
E|---------------------------|---------------------------|
  Got to get you into  my life!


G|------ ------ ------ ------|------ ------ ------ ------|
D|---------------------------|---------------------------|
A|3------3------3------3-----|5--------------------------|
E|---------------------------|---------------------------|

G|------ ------ ------ ------|------ ------ ------ ------|
D|5------5------5------5-----|5------5------5------5-----|
A|-------------------------5-|-------------------------5-|
E|---------------------------|---------------------------|


Verse:
G|------ ------ ------ ------|------ ------ ------ ------|
D|5------5------5------5-----|5------5------5------5-----|
A|---------------------------|-------------------------5-|
E|---------------------------|---------------------------|
      What I do     what I be,    when   with   I  wanna
         can           can           I'm    you,       stay

G|------ ------ ------ ------|------ ------ ------ ------|
D|5------5------5------5-----|5------5------5------5-----|
A|---------------------------|-----------5-------------5-|
E|---------------------------|---------------------------|
      there,


G|------ ------ ------ ------|------ ------ ------ ------|
D|5------5------5------5-----|5------5------5----------3-|
A|-------------------------5-|------------------2--5-5---|
E|---------------------------|----------------3----------|
      If I'm true,  I'll   leave, and if I  do, I know way
                       never                         the

G|------ ------ ------ ------|------ ------ ------ ------|
D|5------5------5------5-----|5------5------5------5-----|
A|-------------------------5-|-------------------------5-|
E|---------------------------|---------------------------|
      there                                            Ooh,


G|------ ------ ------ ------|------ ------ ------ ------|
D|---------------------------|---------------------------|
A|---------------------------|---------------------------|
E|7------7------6------6-----|5------5------4------4---4-|
                    and I sud  -  denly  see    you,   ooh,


G|------ ------ ------ ------|------ ------ ------ ------|
D|---------------------------|---------------------------|
A|---------------------------|---------------------------|
E|7------7------6------6-----|5------5------4------4-----|
                    did I tell    you I  need   you


G|------ ------ ------ ------|------ ------ ------ ------|
D|---------------------------|---------------------------|
A|---------------------------|--------------5------5-----|
E|8------8------7------7-----|5------5-------------------|
  Eve -  ry  -  sin -  gle -  day           of     my


G|------ ------ ------ ------|------ ------ ------ ------|
D|5--------------------------|---------------------------|
A|---------------------------|---------------------------|
E|---------------------------|---------------------------|
  life?

Refrain:
G|------ ------ ------ ------|------ ------ ------ ------|
D|5------5------5------5-----|---------------------------|
A|-------------------------5-|3------3------3------3-----|
E|---------------------------|---------------------------|
  Got to get you into  my life!


G|------ ------ ------ ------|------ ------ ------ ------|
D|---------------------------|---------------------------|
A|3------3------3------3-----|5--------------------------|
E|---------------------------|---------------------------|

G|------ ------ ------ ------|------ ------ ------ ------|
D|5--------------------------|---------------------------|
A|---------------------------|---------------------------|
E|---------------------------|---------------------------|

G|------ ------ ------ ------|------ ------ ------ ------|
D|---------------------------|---------------------------|
A|---------------------------|---------------------------|
E|---------------------------|---------------------------|


Refrain:
G|------ ------ ------ ------|------ ------ ------ ------|
D|5------5------5------5-----|---------------------------|
A|---------------------------|3------3------3------3-----|
E|---------------------------|---------------------------|
  Got to get you into  my life!


G|------ ------ ------ ------|------ ------ ------ ------|
D|---------------------------|---------------------------|
A|3------3------3------3-----|5--------------------------|
E|---------------------------|---------------------------|

G|------ ------ ------ ------|------ ------ ------ ------|
D|---------------------------|---------------------------|
A|---------------------------|---------------------------|
E|3------3------3------3-----|3------3------3------3-----|
                                                I  was
                                                     alone,
Outro:
G|------ ------ ------ ------|------ ------ ------ ------|
D|---------------------------|---------------------------|
A|-------------------------5-|-------------------------5-|
E|3------3------3------3-----|3------3------3------3-----|
      I  took       I  didn't     what would    there,
           a ride,         know      I   find

G|------ ------ ------ ------|------ ------ ------ ------|
D|5------5------5------5-----|5------5------5------5-----|
A|-------------------------5-|-------------------------5-|
E|---------------------------|---------------------------|
                    Another       where  I      could  an-
                           road      maybe         see

G|------ ------ ------ ------|------ ------ ------ ------|
D|5------5------5------5-----|5------5------5------5-----|
A|-------------------------5-|-------------------------5-|
E|---------------------------|---------------------------|
  other  kind of mind there                     And    sud-


G|------ ------ ------ ------|------ ------ ------ ------|
D|5------5------5----------3-|5------5------5----------3-|
A|---------------------5-5---|---------------------5-----|
E|------------------3--------|------------------3--------|
      denly I see   you,                        Did I  tell


G|------ ------ ------ ------|------ ------ ------ ------|
D|5------5------5---3--------|---------------------------|
A|---------------------5---2-|-------------------------5-|
E|---------------------------|3------3------3------3-----|
      you I  need   you                         Eve- ry...
fade...


Tomorrow Never Knows

Ok so again a sitar song, this ones in the key of C again. this one does however have a
bass line, it is listed, but again you can fool about in that key. have fun.

Let the 10's Ring

G|-------------|-----------||
D|------10~~~~~|---10~~~~~~||       REPEAT
A|-------------|-----------||
E|--8--8--88-8-|8--8--88-8-||
comments
print report bad tab
2 comments total.
+2 reply
Sp00nman94 wrote on March 21 2009, 08:21 am

not bad at all...prob top 5 albums ever

0 reply
Who66 wrote on June 10 2015, 08:51 pm

Nice. I'm only sleeping is played in E though (def easier than Eb for a walking line).

I want to post or [tab]
guest
You may want to rate the tab now too:
select rating
Please do not post tabs as comments. Select "correction" instead!