Oops, an error
Loading. Please wait.
We have an official Rock And Roll Music tab made by UG professional guitarists. Check out the tab »
×
13,307 views 24 this week
no commentswrite comment
1 2 3 4 5
x 5
add to favorites
×
Save as Personal and add changes to this tab that will be seen only by you. Learn more ›
×
You can save this tab as Personal to edit and correct it or add notes. All changes will be seen only by you. Learn more »
launch autoscroll
font size
0
reset
guitar tuner
backing track
0:00
0:00
edit
Autoscroll
slow
fast
+/-
esc
set tempo
stop
Author
Rock And Roll Music
The Beatles
Written by Chuck Berry; released on "Beatles For Sale" album.

One of the best-known covers by The Beatles. Excellent vocal by John! :-)

Intro:
G|------- ------- ------- -------|------- ------- ------- -------|
D|-------------------------------|-------------------------------|
A|-------------------------------|-------------------------------|
E|-------------------------------|-------------------------------|
                                      Just let me hear    of  that
                                                      some
Refrain:
G|------- ------- ------- -------|------- ------- ------- -------|
D|------------------------4---4--|7---7-------------------4------|
A|--------4---4---7---7----------|--------4---4---7---7-------7--|
E|5---5--------------------------|-------------------------------|
  rock    and     roll        mu  -   sic,                    a-


G|------- ------- ------- -------|------- ------- ------- -------|
D|------------------------4------|7---7-------------------4------|
A|--------4---4---7---7-------7--|--------4---4---7---7-------7--|
E|5---5--------------------------|-------------------------------|
      ny  old     way     you choose  it,             It's got a


G|------- ------- ------- -------|------- ------- ------- -------|
D|--------4-------7---7---4---7--|--------4-------7---7----------|
A|5---5-------5------------------|5---5-------5-----------5---5--|
E|-------------------------------|-------------------------------|
  back -  beat,   you can't   lose    it,                     a-


G|------- ------- ------- -------|------- ------- ------- -------|
D|------------------------4---4--|7---7--------------------------|
A|--------4-------7---7----------|--------4---4---7---7---4---7--|
E|5---5-------5------------------|-------------------------------|
      ny  old     time    you use     it                      Got


G|------- ------- ------- -------|------- ------- ------- -------|
D|--------6---6---9---9---6---9--|--------6---6---9-------7---6--|
A|7---7--------------------------|7---7---------------7----------|
E|-------------------------------|-------------------------------|
      to  be      rock    roll mu  -  sic,                    if
                      and

G|------- ------- ------- -------|------- ------- ------- -------|
D|--------6-------9-------7---6--|7---7--------------------------|
A|7---7-------7-------7----------|----------------7---7----------|
E|-------------------------------|--------9---9-----------9---9--|
      you wanna   dance   with me,                            if


G|------- ------- ------- -------|------- ------- ------- -------|
D|------------6---9-------7---6--|7------------------------------|
A|7------------------------------|-------------------------------|
E|-------------------------------|-------------------------------|
      you wanna   dance   with me     I've got no kick against

Verse:
G|------- ------- ------- -------|------- ------- ------- -------|
D|------------6-----------9------|------------6-----------9------|
A|7------------------------------|7------------------------------|
E|-------------------------------|-------------------------------|
  mo  -   dern jazz,                  unless they try to  play it


G|------- ------- ------- -------|------- ------- ------- -------|
D|-------------------------------|-------------------------------|
A|------------4-----------7------|------------4-----------7------|
E|5------------------------------|5------------------------------|
  too darn    fast,                   And lose the beauty of  the


G|------- ------- ------- -------|------- ------- ------- -------|
D|------------4-----------7------|------------4-----------7------|
A|5------------------------------|5------------------------------|
E|-------------------------------|-------------------------------|
  me  -   lo- dy                      un- til it  sounded like a


G|------- ------- ------- -------|------- ------- ------- -------|
D|------------6-----------9------|-------------------------------|
A|7------------------------------|7------------------------------|
E|-------------------------------|-------------------------------|
  sym  -  phony                       That's  I   go  for that
                                          why
Refrain:
G|------- ------- ------- -------|------- ------- ------- -------|
D|------------------------4---4--|7---7-------------------4------|
A|--------4---4---7---7----------|--------4---4---7---7-------7--|
E|5---5--------------------------|-------------------------------|
  rock    and     roll        mu  -   sic,                    a-


G|------- ------- ------- -------|------- ------- ------- -------|
D|------------------------4------|7---7-------------------4------|
A|--------4---4---7---7-------7--|--------4---4---7---7-------7--|
E|5---5--------------------------|-------------------------------|
      ny  old     way     you choose  it,             It's got a


G|------- ------- ------- 4------|------- ------- ------- 4------|
D|--------4-------7---7-------7--|--------4-------7---7-------7--|
A|5---5-------5------------------|5---5-------5------------------|
E|-------------------------------|-------------------------------|
  back -  beat,   you can't   lose    it,                     a-


G|------- ------- ------- -------|------- ------- ------- -------|
D|------------------------4---4--|7---7-------------------4------|
A|--------4-------7---7----------|--------4---4---7---7-------5--|
E|5---5-------5------------------|-------------------------------|
      ny  old     time    you use     it                      It's


G|------- ------- ------- -------|------- ------- ------- 6------|
D|--------6---6---9---9---6---9--|--------6-------9---9-------9--|
A|7---7--------------------------|7---7-------7------------------|
E|-------------------------------|-------------------------------|
  got to  be      rock    roll mu  -  sic,
                      and

G|------- ------- ------- -------|------- ------- ------- -------|
D|--------6-------9-------7---6--|7---7-------------------4------|
A|7---7-------7-------7----------|--------4---4---7---7-------5--|
E|-------------------------------|-------------------------------|
  if  you wanna   dance   with me,                            if


G|------- ------- ------- 6------|------- ------- ------- -------|
D|--------6---6---9---9-------9--|7------------------------------|
A|7---7--------------------------|-------------------------------|
E|-------------------------------|-------------------------------|
      you wanna   dance   with me     I   took my loved one over

Verse:
G|------- ------- ------- -------|------- ------- ------- -------|
D|-------------------------------|-------------------------------|
A|------------------------2------|------------------------2------|
E|0-----------4------------------|0-----------3-/-4--------------|
  'cross  the tracks,                 and she can hear my man a-


G|------- ------- ------- -------|------- ------- ------- -------|
D|-------------------------------|-------------------------------|
A|------------3-/-4-------7------|------------3-/-4-------7------|
E|5------------------------------|5------------------------------|
  wail    a   sax                     I   must admit they have a


G|------- ------- ------- -------|------- ------- ------- -------|
D|------------3-/-4-------7------|------------3-/-4-------7------|
A|5------------------------------|5------------------------------|
E|-------------------------------|-------------------------------|
  rocking     band,                   man, they   blowing like a
                                              were

G|------- ------- ------- -------|------- ------- ------- -------|
D|------------5-/-6-------9------|-------------------------------|
A|7------------------------------|7------------------------------|
E|-------------------------------|------------------------12--\--|
  hur  -  ri- cane                    That's  I   go  for that
                                          why
Refrain:
G|------- ------- ------- -------|------- ------- ------- -------|
D|------------------------4------|7---7-------------------4------|
A|--------4---4---7---7-------7--|--------4---4---7---7-------7--|
E|5---5--------------------------|-------------------------------|
  rock    and     roll        mu  -   sic,                    a-


G|------- ------- ------- -------|------- ------- ------- -------|
D|------------------------4------|7---7-------------------4------|
A|--------4---4---7---7-------7--|--------4---4---7-----------7--|
E|5---5--------------------------|--------------------5----------|
      ny  old     way     you choose  it,             It's got a


G|------- ------- ------- 4------|------- ------- ------- 4------|
D|--------4---4---7---7-------7--|--------4-------7-----------7--|
A|5---5--------------------------|5---5-------5-------5----------|
E|-------------------------------|-------------------------------|
  back -  beat,   you can't   lose    it,                     a-


G|------- ------- ------- -------|------- ------- ------- -------|
D|------------------------4------|------------------------4------|
A|--------4-------7-----------7--|--------4-------7-----------5--|
E|5---5-------5-------5----------|5---5-------5-------5----------|
      ny  old     time    you use     it                      It's


G|------- ------- ------- 6------|------- ------- ------- 6------|
D|--------6---6---9---9-------9--|--------6-------9---9-------9--|
A|7---7--------------------------|7---7-------7------------------|
E|-------------------------------|-------------------------------|
  got to  be      rock    roll mu  -  sic,                    if
                      and

G|------- ------- ------- -------|------- ------- ------- -------|
D|--------6-------9-------7---6--|7---7--------------------------|
A|7---7-------7-------7----------|--------4---4---7---7---4---4--|
E|-------------------------------|-------------------------------|
      you wanna   dance   with me,                            if


G|------- ------- ------- -------|------- ------- ------- -------|
D|--------6---6---9---9---7---6--|7------------------------------|
A|7---7--------------------------|-------------------------------|
E|-------------------------------|-------------------------------|
      you wanna   dance   with me     Way down    south   had a
                                                      they
Verse:
G|------- ------- ------- -------|------- ------- ------- -------|
D|-------------------------------|-------------------------------|
A|------------------------2------|------------------------2------|
E|0-----------4------------------|0-----------4------------------|
  ju  -   bi- lee                     the jo- key folks,  had a
                                                      they

G|------- ------- ------- -------|------- ------- ------- -------|
D|-------------------------------|-------------------------------|
A|------------4-----------7------|------------4-----------7------|
E|5------------------------------|5------------------------------|
  jam  -  bo- ree                     They're     home    from a
                                          drinking    brew

G|------- ------- ------- -------|------- ------- ------- -------|
D|------------4-----------7------|------------4-----------7------|
A|5------------------------------|5------------------------------|
E|-------------------------------|-------------------------------|
  wa      ter cup,                    the folks   dancing got


G|------- ------- ------- -------|------- ------- ------- -------|
D|------------6-----------9------|-------------------------------|
A|7------------------------------|7---------------------------4--|
E|-------------------------------|-------------------------------|
  all     shook up                    And started playing that

Refrain:
G|------- ------- ------- -------|------- ------- ------- -------|
D|------------------------4------|------------------------4------|
A|--------4---4---7---7-------7--|--------4-------7-----------7--|
E|5---5--------------------------|5---5-------5-------5----------|
  rock    and     roll        mu  -   sic,                    a-


G|------- ------- ------- -------|------- ------- ------- -------|
D|------------------------4------|------------------------4------|
A|--------4---4---7---7-------7--|--------4---4---7---7-------7--|
E|5---5--------------------------|5---5--------------------------|
      ny  old     way     you choose  it,             It's got a


G|------- ------- ------- 4------|------- ------- ------- 4------|
D|--------4-------7---7-------7--|--------4---4---7---7-------7--|
A|5---5-------5------------------|5---5--------------------------|
E|-------------------------------|-------------------------------|
  back -  beat,   you can't   lose    it,                     a-


G|------- ------- ------- -------|------- ------- ------- -------|
D|------------------------4------|------------------------4------|
A|--------4-------7---7-------7--|--------4-------7---7-------5--|
E|5---5-------5------------------|5---5-------5------------------|
      ny  old     time    you use     it                      It's


G|------- ------- ------- 6------|------- ------- ------- 6------|
D|--------6---6---9---9-------9--|--------6---6---9---9-------9--|
A|7---7--------------------------|7---7--------------------------|
E|-------------------------------|-------------------------------|
  got to  be      rock    roll mu  -  sic,                    if
                      and

G|------- ------- ------- 6------|------- ------- ------- -------|
D|--------6---6---9---9-------9--|7---7--------------------------|
A|7---7--------------------------|--------4---4---7---7---4---7--|
E|-------------------------------|-------------------------------|
      you wanna   dance   with me,                            if


G|------- ------- ------- -------|------- ------- ------- -------|
D|--------6---6---9---9---6------|7------------------------------|
A|7---7--------------------------|-------------------------------|
E|-------------------------------|-------------------------------|
      you wanna   dance   with me     Don't   to  hear    play a
                                          care        them
Verse:
G|------- ------- ------- -------|------- ------- ------- -------|
D|-------------------------------|-------------------------------|
A|------------------------2------|------------------------2------|
E|0-----------4------------------|0-----------4------------------|
  tan    -    go,                     I'm in  the mood to hear a


G|------- ------- ------- -------|------- ------- ------- -------|
D|-------------------------------|-------------------------------|
A|------------4-----------7------|------------4-----------7------|
E|5------------------------------|5------------------------------|
  mam    -    bo,                     It's way too early  for  a


G|------- ------- ------- -------|------- ------- ------- -------|
D|------------3-/-4-------7------|------------3-/-4-------7------|
A|5------------------------------|5------------------------------|
E|-------------------------------|-------------------------------|
  con    -    go,                     so  keep on rocking that


G|------- ------- ------- -------|------- ------- ------- -------|
D|-------------------------------|-------------------------------|
A|------------------------2------|-------------------------------|
E|0-----------4------------------|0------------------------------|
  pi- a   -   no                      That's  I   go  for that
                                          why
Refrain:
G|------- ------- ------- -------|------- ------- ------- -------|
D|------------------------4------|7---7-------------------4------|
A|--------4-------7---7-------7--|--------4---4---7---7-------7--|
E|5---5-------5------------------|-------------------------------|
  rock    and     roll        mu  -   sic,                    a-


G|------- ------- ------- -------|------- ------- ------- -------|
D|------------------------4------|7---7-------------------4------|
A|--------4---4---7---7-------7--|--------4-------7---7-------7--|
E|5---5--------------------------|------------5------------------|
      ny  old     way     you choose  it,             It's got a


G|------- ------- ------- 4------|------- ------- ------- 4------|
D|--------4---4---7---7-------7--|--------4---4---7---7-------7--|
A|5---5--------------------------|5---5--------------------------|
E|-------------------------------|-------------------------------|
  back -  beat,   you can't   lose    it,                     a-


G|------- ------- ------- -------|------- ------- ------- -------|
D|------------------------4------|------------------------4------|
A|--------4---4---7---7-------7--|--------4---4---7---7-------7--|
E|5---5--------------------------|5---5--------------------------|
      ny  old     time    you use     it                      Lot


G|------- ------- ------- 6------|------- ------- ------- 6------|
D|--------6-------9---9-------9--|--------6---6---9---9-------9--|
A|7---7-------7------------------|7---7--------------------------|
E|-------------------------------|-------------------------------|
      of  that    rock    roll mu  -  sic,                    if
                      and

G|------- ------- ------- 6------|------- ------- ------- -------|
D|--------6---6---9---9-------9--|7---7---4---4------------------|
A|7---7--------------------------|----------------7---7---4---4--|
E|-------------------------------|-------------------------------|
      you wanna   dance   with me,                            if


G|------- ------- ------- -------|------- ------- ------- -------|
D|-------------------------------|7-------7---7---7--------------|
A|7---7---7---7---7---7---7------|-------------------------------|
E|-------------------------------|-------------------------------|
      you wanna   dance   with    me

Please e-mail me for any corrections, or write a comment.

            
            
Suggest correction
Creating personal tab
Creating personal tab
You can edit any tab online and save it as your Personal.

You can edit, replace or remove any tab part or add personal notes – all changes will be seen only by you.

Personal tabs can be accessed anytime from any device, even offline.
Learn more »
comments
print report bad tab
guest
You may want to rate the tab now too:
select rating
Wanna post a correction for this tab? Suggest correction