Oops, an error
Loading. Please wait.

Run For Your Life Bass Tab

version 1
version 1

Whole song

Interactive

5,011 views 12 this week
no commentswrite comment
1 2 3 4 5
please rate
add to favorites
launch autoscroll
font size
0
reset
guitar tuner
Tab Pro tools
  • play this tab
  • loop segment
  • change instrument
  • show fretboard
  • metronome
×
Best way to learn
"Run For Your Life"
Autoscroll
slow
fast
+/-
esc
set tempo
stop
Contributor
Run For Your Life
The Beatles
Written by John Lennon and Paul McCartney; released on "Rubber Soul"

This is a song which John loved at least. But that doesn't mean it's a bad one.

Intro:
G|------- ------- ------- -------|------- ------- ------- -------|
D|-------------------------------|-------------------------------|
A|-------------------------------|-------------------------------|
E|-------------------------------|-------------------------------|



G|------- ------- ------- -------|------- ------- ------- -------|
D|-------------------------------|-------------------------------|
A|-------------------------------|-------------------------------|
E|-------------------------------|-------------------------------|



G|------- ------- ------- -------|------- ------- ------- -------|
D|-------------------------------|-------------------------------|
A|5-----------5------------------|5------------------------------|
E|----------------5---5----------|----------------5---5-------5--|



G|------- ------- ------- -------|------- ------- ------- -------|
D|-------------------------------|-------------------------------|
A|5------------------------------|5------------------------------|
E|----------------5---5-------5--|----------------5---5-------5--|
                                                      Well,   I'd

Verse:
G|------- ------- ------- -------|------- ------- ------- -------|
D|-------------------------------|-------------------------------|
A|5------------------------------|5------------------------------|
E|----------------5---5-------5--|----------------5---5-------5--|
  ra  -   ther    see     you dead,       little  girl,  than to


G|------- ------- ------- -------|------- ------- ------- -------|
D|-------------------------------|-------------------------------|
A|2------------------------------|2------------------------------|
E|----------------2---2-------2--|----------------2---2----------|
  be     with an- o - ther    man                             You'd


G|------- ------- ------- -------|------- ------- ------- -------|
D|-------------------------------|-------------------------------|
A|5------------------------------|5------------------------------|
E|----------------5---5----------|----------------5---5----------|
  bet  -  ter     keep   your head,       little  girl,   or  I


G|------- ------- ------- -------|------- ------- ------- -------|
D|-------------------------------|-------------------------------|
A|2---------------------------0--|2---------------------------0--|
E|----------------2---2----------|----------------2---2----------|
  won't   know    where I     am                     You'd better

Refrain:
G|------- ------- ------- -------|------- ------- ------- -------|
D|-------------------------------|-------------------------------|
A|2------------------------------|--------------------2----------|
E|----------------2---2-------2--|0---------------4-----------4--|
  run     for your    if  you can,        little  girl,
                  life

G|------- ------- ------- -------|------- ------- ------- -------|
D|-------------------------------|-------------------------------|
A|2------------------------------|--------------------2----------|
E|----------------2---2-------2--|0---------------4-----------4--|
  hide   your head    in  the sand,       little  girl,


G|------- ------- ------- -------|------- ------- ------- -------|
D|-------------------------------|-------------------------------|
A|2------------------------------|-------------------------------|
E|----------------2---2-------2--|3-----------3---2---2-------2--|
  Catch   with an-o - ther    man,                that's  the end,
      you

G|------- ------- ------- -------|------- ------- ------- -------|
D|-------------------------------|-------------------------------|
A|2-----------2------------------|2-------2-------3-------4------|
E|----------------2---2-------2--|-------------------------------|
                          little  girl


G|------- ------- ------- -------|------- ------- ------- -------|
D|-------------------------------|-------------------------------|
A|5------------------------------|5------------------------------|
E|----------------5---5-------5--|----------------5---5-------5--|



G|------- ------- ------- -------|------- ------- ------- -------|
D|-------------------------------|-------------------------------|
A|5------------------------------|5------------------------------|
E|----------------5---5-------5--|----------------5---5-------5--|
                                                      Well,   you

Verse:
G|------- ------- ------- -------|------- ------- ------- -------|
D|-------------------------------|-------------------------------|
A|5------------------------------|5------------------------------|
E|----------------5---5-------5--|----------------5---5-------5--|
  know    that    I'm     a       wicked      guy,    and I   was


G|------- ------- ------- -------|------- ------- ------- -------|
D|-------------------------------|-------------------------------|
A|2------------------------------|2------------------------------|
E|----------------2---2-------2--|----------------2---2-------2--|
  born    with a  jealous     mind,                           And


G|------- ------- ------- -------|------- ------- ------- -------|
D|-------------------------------|-------------------------------|
A|5------------------------------|5------------------------------|
E|----------------5---5-------5--|----------------5---5-------5--|
  I       can't   spend   my  whole       life    trying  just to


G|------- ------- ------- -------|------- ------- ------- -------|
D|-------------------------------|-------------------------------|
A|2------------------------------|2------------------------------|
E|----------------2---2-------2--|----------------2---2-------2--|
  make    you     toe     the line                   You'd better

Refrain:
G|------- ------- ------- -------|------- ------- ------- -------|
D|-------------------------------|-------------------------------|
A|2------------------------------|--------------------2----------|
E|----------------2---2-------2--|0---------------4-----------4--|
  run     for your    if  you can,        little  girl,
                  life

G|------- ------- ------- -------|------- ------- ------- -------|
D|-------------------------------|-------------------------------|
A|2------------------------------|--------------------2----------|
E|----------------2---2-------2--|0---------------4-----------4--|
  hide   your head    in  the sand,       little  girl,


G|------- ------- ------- -------|------- ------- ------- -------|
D|-------------------------------|-------------------------------|
A|2-----------2------------------|-------------------------------|
E|----------------2---2-------2--|3-----------3---2---2-------2--|
  Catch   with an-o - ther    man,                that's  the end,
      you

G|------- ------- ------- -------|------- ------- ------- -------|
D|-------------------------------|-------------------------------|
A|2-----------2------------------|2-------2-------3-------4------|
E|----------------2---2-------2--|-------------------------------|
                          little  girl

Break (solo):
G|------- ------- ------- -------|------- ------- ------- -------|
D|-------------------------------|-------------------------------|
A|5-----------5------------------|5-----------5------------------|
E|----------------5---5-------5--|----------------5---5----------|



G|------- ------- ------- -------|------- ------- ------- -------|
D|-------------------------------|-------------------------------|
A|5-----------5---------------3--|5-----------5------------------|
E|----------------5---5----------|----------------5---5-------5--|



G|------- ------- ------- -------|------- ------- ------- -------|
D|5------------------------------|5------------------------------|
A|----------------5---5-------5--|----------------5---5-------5--|
E|-------------------------------|-------------------------------|



G|------- ------- ------- -------|------- ------- ------- -------|
D|-------------------------------|-------------------------------|
A|5-----------5------------------|5------------------------------|
E|----------------5---5----------|----------------5---5-------5--|



G|------- ------- ------- -------|------- ------- ------- -------|
D|7------------------------------|7-----------7------------------|
A|----------------7---7-------7--|----------------7---7-------7--|
E|-------------------------------|-------------------------------|



G|------- ------- ------- -------|------- ------- ------- -------|
D|-------------------------------|-------------------------------|
A|5------------------------------|5------------------------------|
E|----------------5---5-------5--|----------------5---5-------5--|


Verse:
G|------- ------- ------- -------|------- ------- ------- -------|
D|-------------------------------|-------------------------------|
A|5------------------------------|5------------------------------|
E|----------------5---5-------5--|----------------5---5-------5--|
  Let     this    be      a   ser    -    mon, I      mean,


G|------- ------- ------- -------|------- ------- ------- -------|
D|-------------------------------|-------------------------------|
A|2-----------2------------------|2-----------2------------------|
E|----------------2---2-------2--|----------------2---2-------2--|
  Eve  -  ry  -  thing I      said,


G|------- ------- ------- -------|------- ------- ------- -------|
D|-------------------------------|-------------------------------|
A|5-----------5------------------|5------------------------------|
E|----------------5---5-------5--|----------------5---5-------5--|
  Ba  -   by,     I'm     de- ter-        mined,      and I'd ra-


G|------- ------- ------- -------|------- ------- ------- -------|
D|-------------------------------|-------------------------------|
A|2-----------2------------------|2------------------------------|
E|----------------2---2-------2--|----------------2---2-------2--|
          ther    see you     dead                   You'd better

Refrain:
G|------- ------- ------- -------|------- ------- ------- -------|
D|-------------------------------|-------------------------------|
A|2------------------------------|--------------------2----------|
E|----------------2---2-------2--|0---------------4-----------4--|
  run     for your    if  you can,        little  girl,
                  life

G|------- ------- ------- -------|------- ------- ------- -------|
D|-------------------------------|-------------------------------|
A|2------------------------------|--------------------2----------|
E|----------------2---2-------2--|0---------------4-----------4--|
  hide   your head    in  the sand,       little  girl,


G|------- ------- ------- -------|------- ------- ------- -------|
D|-------------------------------|-------------------------------|
A|2-----------2------------------|-------------------------------|
E|----------------2---2-------2--|3-----------3---2---2-------2--|
  Catch   with an-o - ther    man,                that's  the end,
      you

G|------- ------- ------- -------|------- ------- ------- -------|
D|-------------------------------|-------------------------------|
A|2------------------------------|2-------2-------3-------4------|
E|----------------2---2-------2--|-------------------------------|
                          little  girl


G|------- ------- ------- -------|------- ------- ------- -------|
D|-------------------------------|-------------------------------|
A|5------------------------------|5------------------------------|
E|----------------5---5----------|----------------5---5-------5--|


G|------- ------- ------- -------|------- ------- ------- -------|
D|-------------------------------|-------------------------------|
A|5-----------5------------------|5-----------5------------------|
E|----------------5---5-------5--|----------------5---5-------5--|
                                                              I'd

Verse:
G|------- ------- ------- -------|------- ------- ------- -------|
D|-------------------------------|-------------------------------|
A|5------------------------------|5------------------------------|
E|----------------5---5----------|----------------5---5-------5--|
  ra  -   ther    see     you dead,       little  girl,  than to


G|------- ------- ------- -------|------- ------- ------- -------|
D|-------------------------------|-------------------------------|
A|2------------------------------|2-----------2------------------|
E|----------------2---2-------2--|----------------2---2-------2--|
  be     with an- o - ther    man                             You'd


G|------- ------- ------- -------|------- ------- ------- -------|
D|-------------------------------|-------------------------------|
A|5-----------5------------------|5-----------5------------------|
E|----------------5---5-------5--|----------------5---5-------5--|
  bet  -  ter     keep   your head,       little  girl,   or  you


G|------- ------- ------- -------|------- ------- ------- -------|
D|-------------------------------|-------------------------------|
A|2------------------------------|2-----------2------------------|
E|----------------2---2-------2--|----------------2---2-------2--|
  won't   know    where I     am                     You'd better

Refrain:
G|------- ------- ------- -------|------- ------- ------- -------|
D|-------------------------------|-------------------------------|
A|2------------------------------|--------------------2----------|
E|----------------2---2-------2--|0-----------0---4-----------4--|
  run     for your    if  you can,        little  girl,
                  life

G|------- ------- ------- -------|------- ------- ------- -------|
D|-------------------------------|-------------------------------|
A|2------------------------------|--------------------2----------|
E|----------------2---2-------2--|0-----------0---4-----------4--|
  hide   your head    in  the sand,       little  girl,


G|------- ------- ------- -------|------- ------- ------- -------|
D|-------------------------------|-------------------------------|
A|2------------------------------|-------------------------------|
E|----------------2---2-------2--|3-----------3---2---2-------2--|
  Catch   with an-o - ther    man,                that's  the end,
      you

G|------- ------- ------- -------|------- ------- ------- -------|
D|-------------------------------|-------------------------------|
A|2------------------------------|2-------2-------3-------4------|
E|----------------2---2-------2--|-------------------------------|
                          little  girl


G|------- ------- ------- -------|------- ------- ------- -------|
D|-------------------------------|-------------------------------|
A|5-----------5------------------|5------------------------------|
E|----------------5---5-------5--|----------------5---5-------5--|



G|------- ------- ------- -------|------- ------- ------- -------|
D|-------------------------------|-------------------------------|
A|5-----------5------------------|5------------------------------|
E|----------------5---5-------5--|----------------5---5-------5--|
                                                  Na  na      na,

Outro:
G|------- ------- ------- -------|------- ------- ------- -------|
D|-------------------------------|-------------------------------|
A|5-----------5------------------|5-----------5------------------|
E|----------------5---5-------5--|----------------5---5-------5--|
                                                  Na  na      na,


G|------- ------- ------- -------|------- ------- ------- -------|
D|-------------------------------|-------------------------------|
A|5-----------5------------------|5-----------5------------------|
E|----------------5---5-------5--|----------------5---5-------5--|
                                                  Na  na      na,
repeat and fade...

Please e-mail me for any corrections, or write a comment.
comments
We did not receive enough feedback on this tab! Please rate:
print report bad tab
1 2 3 4 5
I want to post or [tab]
guest
You may want to rate the tab now too:
select rating
Please do not post tabs as comments. Select "correction" instead!