Oops, an error
Loading. Please wait.

Sgt Peppers Lonely Hearts Club Band Bass Tab

version 1
version 1

Whole song

42,936 views 42 this week
4 commentsread comments
1 2 3 4 5
x 26
add to favorites
launch autoscroll
font size
0
reset
guitar tuner
backing track
0:00
0:00
×
Best way to learn
"Sgt Peppers Lonely Hearts Club Band"
Autoscroll
slow
fast
+/-
esc
set tempo
stop
Author
Band - The Beatles
Song - Sgt. Peppers lonely Heart's Club Band

[Intro]
G|------------------------|    
D|------------------------|    
A|------------------------| 
E|-5—-5—-5—-5--5--5--5--5-|(x2)

G|------------------------|
D|------------------------|
A|3--3--3--3--3--3--3--3--|
E|-----------------------3|

[Verse]
G|------------------------|------------------------|
D|------------------------|------------------------|
A|------------------------|-3--3--3----------------| 
E|-3--3--3----5--5--5-----|------------3--3--3-----|(x2)

G|------------------------|------------------------|
D|------------------------|------------------------|
A|------------------------|-3--3--3--3--3--3--3—-3-|
E|-5--5--5--5--5--5--5--5-|------------------------|
  
G|------------------------|------------------------|
D|------------------------|------------------------|
A|-------2--2--3--3--4--5-|-------2--2--5--5--2--2-|
E|-3--3-------------------|-3--3-------------------|

G|------------------------|------------------------|------------------------|
D|------------------------|-3--3--0--0-------------|------------------------|
A|-3--3-------------------|-------------3--3--0--0-|-3--3--3--3--3--3--3--3-|
E|-------6--6--5--5—-3--3-|------------------------|------------------------|

G|------------------------|------------------------|
D|------------------------|------------------------|
A|-5-----5-----5-----5----|-5-----5-----5----------|
E|----5-----5-----5-----5-|----5-----5-------------|

[Chorus]
G|------------------------|------------------------|-----------------------|
D|------------------------|------------------------|-----------------------|
A|------------------------|-3--3-------------------|-3--3------------------|
E|---3--3------6--6-------|-----------3--3---------|-------6--6--5—5--3--3-|

G|------------------------|------------------------|-----------------------|
D|------------------------|------------------------|-----------------------|
A|------------------------|------------------------|-3--3------------------|
E|-3--3--3--3--3--3--3--0-|-3--3------6--6---------|-----------3--3--------|

G|------------------------|------------------------|
D|------------------------|------------------------|
A|------------------------|-5----------------------|
E|-5--5--5--0--5--5--5—-0-|------------------------|

[Bridge]
G|------------------------|------------------------|
D|------------------------|------------------------|
A|-3--3--3-----3--3--3----|----------5-------------|
E|----------3-----------3-|-3--3--3-----3--3--3—-4-|

G|------------------------|------------------------|
D|------------------------|------------------------|
A|----------------------3-|---5---------5----------|
E|-5--5--5--5--5--5--5----|--------3-------3—------|

G|------------------------|------------------------|------------------------|
D|------------------------|------------------------|------------------------|
A|-3--3-------------------|-------0--0--3--3--0----|-3--3-------------------|
E|-------6--6--5--5--3--3-|-1--1-----------------3-|-------6--6--5--5--3--3-|

G|------------------------|------------------------|
D|------------------------|------------------------|
A|-5-----5-----5----------|-5-----5-----5----------|
E|----5-----5-----5--2--5-|----5-----5-------------|

[Verse]
G|------------------------|------------------------|
D|------------------------|------------------------|
A|------------------------|-3--3--3----------------| 
E|-3--3--3----5--5--5-----|------------3--3--3-----|(x2)

G|------------------------|------------------------|
D|------------------------|------------------------|
A|------------------------|------------------------|
E|-5--5--5--5--5--5--5--5-|-8--8--8--8--8—-8--8----|
  
G|------------------------|------------------------|
D|------------------------|------------------------|
A|-------2--2--3--3--4--5-|-------2--2--5--5--2--2-|
E|-3--3-------------------|-3--3-------------------|

[Outro]
G|------------------------|------------------------|
D|------------------------|------------------------|
A|-3--3-------------------|-3--3-------------------|
E|-------6--6--5--5--3--3-|-------6--6--5--5--3--3-|
Suggest correction
comments
print report bad tab
4 comments total. Showing first comments.
+1 reply
southend4life 30 Nov 20, 2005 09:10 PM

The bass is the heart and soul of this song and you nailed it with this tab. Brilliant

0 reply
slashjr123 26 Jul 06, 2007 06:03 AM

awesome tab dude

0 reply
harrigeorgeson 42 Mar 12, 2010 03:05 PM

Great tab man!

Thanks too; hopefully my bassist will at least play the song, since he's more into Red Hot Chili Peppers slap bass. Maybe I'll convert him to the earlier classics :)

guest
You may want to rate the tab now too:
select rating
Wanna post a correction for this tab? Suggest correction