Oops, an error
Loading. Please wait.
We have an official She Loves You tab made by UG professional guitarists. Check out the tab »
×
22,345 views 39 this week
no commentswrite comment
1 2 3 4 5
x 12
add to favorites
×
Save as Personal and add changes to this tab that will be seen only by you. Learn more ›
×
You can save this tab as Personal to edit and correct it or add notes. All changes will be seen only by you. Learn more »
launch autoscroll
font size
0
reset
guitar tuner
backing track
0:00
0:00
edit
Autoscroll
slow
fast
+/-
esc
set tempo
stop
Author
She Loves You
The Beatles
Written by John Lennon and Paul McCartney; released on single "She Loves 
You / I'll Get You"

One of their biggest hits.

Intro:
G|------- ------- ------- -------|------- ------- ------- -------|
D|-------------------------------|-------------------------------|
A|-------------------------------|-------------------------------|
E|-------------------------------|-------------------------------|
                                                              She


G|------- ------- ------- -------|------- ------- ------- -------|
D|-------------------------------|-------------------------------|
A|7-----------7---------------5--|7-----------7-----------7------|
E|----------------7--------------|----------------7--------------|
  loves   you,    yeah,           yeah,       yeah!           She


G|------- ------- ------- -------|------- ------- ------- -------|
D|7-----------7------------------|7-----------7-----------7------|
A|----------------7-----------7--|----------------7--------------|
E|-------------------------------|-------------------------------|
  loves   you,    yeah,           yeah,       yeah!           She


G|------- ------- ------- -------|------- ------- ------- -------|
D|----------------5--------------|----------------5--------------|
A|-------------------------------|-------------------------------|
E|8-----------8---------------7--|8-----------8-----------8------|
  loves   you,    yeah,           yeah,           yeah,


G|------- ------- ------- -------|------- ------- ------- -------|
D|5---------------------------4--|5-----------5------------------|
A|----------------5--------------|----------------5---5---7------|
E|-------------------------------|-------------------------------|
  yeah!                                                       You

Verse:
G|------- ------- ------- -------|------- ------- ------- -------|
D|5-----------5-----------5------|-------------------------------|
A|----------------5--------------|7-----------7---7--------------|
E|-------------------------------|-------------------------------|
  think   you've  lost    your love,                      well, I


G|------- ------- ------- -------|------- ------- ------- -------|
D|-------------------------------|-------------------------------|
A|-------------------------------|5-----------5---5--------------|
E|7-----------7---7--------------|-------------------------------|
  saw     her     yes    -    terday,                         It's


G|------- ------- ------- -------|------- ------- ------- -------|
D|5-----------5---5--------------|-------------------------------|
A|-------------------------------|7-----------7---7--------------|
E|-------------------------------|-------------------------------|
  you     she's   thin -  king of,                        and she


G|------- ------- ------- -------|------- ------- ------- -------|
D|-------------------------------|-------------------------------|
A|-------------------------------|5-----------5---5--------------|
E|7-----------7---7--------------|-------------------------------|
  told    me      what        to  say:                She says she


G|------- ------- ------- -------|------- ------- ------- -------|
D|5------------------------------|5-----------5-----------5------|
A|------------------------5------|----------------5--------------|
E|------------7------------------|-------------------------------|
  loves   you,            and you know    that    can't   be


G|------- ------- ------- -------|------- ------- ------- -------|
D|-------------------------------|-------------------------------|
A|7-----------7------------------|7-----------7-----------7------|
E|----------------7-----------7--|----------------7--------------|
  bad                                                         She


G|------- ------- ------- -------|------- ------- ------- -------|
D|----------------5--------------|----------------5--------------|
A|-------------------------------|-------------------------------|
E|8-----------8---------------7--|8-----------8-----------8------|
  loves   you,            and you know    you     should  be  glad


G|------- ------- ------- -------|------- ------- ------- -------|
D|----------------7--------------|----------------7-----------4--|
A|5-----------5------------------|5-----------5-------5---7------|
E|-------------------------------|-------------------------------|
                                                              She

Verse:
G|------- ------- ------- -------|------- ------- ------- -------|
D|5-----------5-----------5------|-------------------------------|
A|----------------5--------------|7-----------7---7--------------|
E|-------------------------------|-------------------------------|
  said    you     hurt    her so,                             she


G|------- ------- ------- -------|------- ------- ------- -------|
D|-------------------------------|-------------------------------|
A|-------------------------------|5-----------5---5--------------|
E|7-----------7---7--------------|-------------------------------|
  al  -   most    lost        her mind,                       But


G|------- ------- ------- -------|------- ------- ------- -------|
D|5-----------5-----------5------|-------------------------------|
A|----------------5--------------|7-----------7---7--------------|
E|-------------------------------|-------------------------------|
  now     she     says    she knows                           you're


G|------- ------- ------- -------|------- ------- ------- -------|
D|-------------------------------|-------------------------------|
A|-------------------------------|5-----------5---5--------------|
E|7-----------7---7--------------|-------------------------------|
  not     the     hur   -    ting kind                She says she


G|------- ------- ------- -------|------- ------- ------- -------|
D|5------------------------------|5-----------5-----------5------|
A|------------------------5------|----------------5--------------|
E|------------7------------------|-------------------------------|
  loves   you,            and you know    that    can't   be


G|------- ------- ------- -------|------- ------- ------- -------|
D|-------------------------------|-------------------------------|
A|7-----------7------------------|7-----------7-----------7------|
E|----------------7-----------7--|----------------7--------------|
  bad                                                         She


G|------- ------- ------- -------|------- ------- ------- -------|
D|----------------5--------------|----------------5--------------|
A|-------------------------------|-------------------------------|
E|8-----------8---------------7--|8-----------8-----------8------|
  loves   you,            and you know    you     should  be  glad,


G|------- ------- ------- -------|------- ------- ------- -------|
D|----------------7--------------|----------------7--------------|
A|5-----------5---------------4--|5-----------5-----------5------|
E|-------------------------------|-------------------------------|
                              Ooh!                            She

Refrain:
G|------- ------- ------- -------|------- ------- ------- -------|
D|-------------------------------|-------------------------------|
A|7-----------7---------------5--|7-----------7-----------7------|
E|----------------7--------------|----------------7--------------|
  loves   you,    yeah,           yeah,       yeah!           She


G|------- ------- ------- -------|------- ------- ------- -------|
D|7-----------7---------------5--|7-----------7-----------7------|
A|----------------7--------------|----------------7--------------|
E|-------------------------------|-------------------------------|
  loves   you,    yeah,           yeah,       yeah!       With a


G|------- ------- ------- -------|------- ------- ------- -------|
D|-------------------------------|----------------7--------------|
A|-------------------------------|5-----------5-----------5------|
E|8-------8-------8--------------|-------------------------------|
  love    like    that,       you know    you     should  be  glad


G|------- ------- ------- -------|------- ------- ------- -------|
D|5-----------5------------------|5-----------5---------------4--|
A|----------------5--------------|----------------5---5---7------|
E|-------------------------------|-------------------------------|
                                                              You

Verse:
G|------- ------- ------- -------|------- ------- ------- -------|
D|5-----------5-----------5------|-------------------------------|
A|----------------5--------------|7-----------7---7--------------|
E|-------------------------------|-------------------------------|
  know    it's    up      to  you,                            I


G|------- ------- ------- -------|------- ------- ------- -------|
D|-------------------------------|-------------------------------|
A|-------------------------------|5-----------5---5--------------|
E|7-----------7---7--------------|-------------------------------|
  think   it's    on    -     ly  fair,


G|------- ------- ------- -------|------- ------- ------- -------|
D|5-----------5-----------5------|-------------------------------|
A|----------------5--------------|7-----------7---7--------------|
E|-------------------------------|-------------------------------|
  Pride   can     hurt    you too,                            a-


G|------- ------- ------- -------|------- ------- ------- -------|
D|-------------------------------|-------------------------------|
A|-------------------------------|5-----------5---5--------------|
E|7-----------7---7--------------|-------------------------------|
  po      lo      gize       to   her                 Because she


G|------- ------- ------- -------|------- ------- ------- -------|
D|5------------------------------|5-----------5-----------5------|
A|------------------------5------|----------------5--------------|
E|------------7------------------|-------------------------------|
  loves   you,            and you know    that    can't   be


G|------- ------- ------- -------|------- ------- ------- -------|
D|-------------------------------|-------------------------------|
A|7-----------7------------------|7-----------7---------------7--|
E|----------------7--------------|----------------7--------------|
  bad                                                         She


G|------- ------- ------- -------|------- ------- ------- -------|
D|----------------5--------------|----------------5--------------|
A|-------------------------------|-------------------------------|
E|8-----------8------------------|8-----------8-----------8------|
  loves   you,            and you know    you     should  be  glad,


G|------- ------- ------- -------|------- ------- ------- -------|
D|----------------7--------------|----------------7--------------|
A|5-----------5---------------4--|5-----------5-----------5------|
E|-------------------------------|-------------------------------|
                              Ooh!                            She

Refrain:
G|------- ------- ------- -------|------- ------- ------- -------|
D|-------------------------------|-------------------------------|
A|7---------------------------5--|7-----------7-----------7------|
E|----------------7--------------|----------------7--------------|
  loves   you,    yeah,           yeah,       yeah!           She


G|------- ------- ------- -------|------- ------- ------- -------|
D|7-----------7------------------|7-----------7------------------|
A|----------------7--------------|----------------7--------------|
E|-------------------------------|-------------------------------|
  loves   you,    yeah,           yeah,       yeah!       With a


G|------- ------- ------- -------|------- ------- ------- -------|
D|-------------------------------|----------------7--------------|
A|-------------------------------|5-----------5-----------5------|
E|8-------8-------8--------------|-------------------------------|
  love    like    that,       you know    you     should  be  glad


G|------- ------- ------- -------|------- ------- ------- -------|
D|5-----------5-----------5---4--|-------------------------------|
A|----------------5--------------|7-----------7---7--------------|
E|-------------------------------|-------------------------------|
                                                          With a

Outro:
G|------- ------- ------- -------|------- ------- ------- -------|
D|-------------------------------|----------------7--------------|
A|-------------------------------|5-----------5-----------5------|
E|8-------8-------8--------------|-------------------------------|
  love    like    that,       you know    you     should  be  glad


G|------- ------- ------- -------|------- ------- ------- -------|
D|5-----------5-----------5---4--|-------------------------------|
A|----------------5--------------|7-----------7---7--------------|
E|-------------------------------|-------------------------------|
                                                          With a


G|------- ------- ------- -------|
D|-------------------------------|
A|-------------------------------|
E|8-------8-------8--------------|
  love    like    that,       you


G|-------------------------------------------------------------|
D|-------------------------------------------------------------|
A|5------------------------------------------------------------|
E|-------------------------------------------------------------|
  know    you     should                               be


G|------- ------- ------- -------|------- ------- ------- -------|
D|5---------------------------4--|5-----------5------------------|
A|----------------5--------------|----------------7--------------|
E|-------------------------------|-------------------------------|
  glad!


G|------- ------- ------- -------|------- ------- ------- -------|
D|-------------------------------|-------------------------------|
A|7---------------------------5--|7-----------7---------------7--|
E|----------------7--------------|----------------7--------------|
                  Yeah,           yeah,       yeah!


G|------- ------- ------- -------|------- ------- ------- -------|
D|----------------5--------------|----------------5--------------|
A|-------------------------------|-------------------------------|
E|8-----------8---------------7--|8-----------8---------------8--|
                  Yeah,           yeah,           yeah,


G|------- ------- ------- -------|------- ------- ------- -------|
D|5------------------------------|-------------------------------|
A|-------------------------------|-------------------------------|
E|-------------------------------|-------------------------------|
  yeah!

Please e-mail me for any corrections.
Suggest correction
Creating personal tab
Creating personal tab
You can edit any tab online and save it as your Personal.

You can edit, replace or remove any tab part or add personal notes – all changes will be seen only by you.

Personal tabs can be accessed anytime from any device, even offline.
Learn more »
comments
print report bad tab
guest
You may want to rate the tab now too:
select rating
Wanna post a correction for this tab? Suggest correction