Oops, an error
Loading. Please wait.
We have an official Something tab made by UG professional guitarists. Check out the tab »
×

Something chords

1,945 views 9 this week
no commentswrite comment
1 2 3 4 5
x 5
add to favorites
×
Save as Personal and add changes to this tab that will be seen only by you. Learn more ›
×
You can save this tab as Personal to edit and correct it or add notes. All changes will be seen only by you. Learn more »
launch autoscroll
font size
0
reset
transpose
0
reset
simplify chords
display chords
guitar tuner
backing track
0:00
0:00
edit
Autoscroll
slow
fast
+/-
esc
set tempo
stop
Author
About this tab version
Theres less chords in weird places and its easier/more accurate in my opinion. Was this info helpful? Yes No
Strumming
There is no strumming pattern for this song yet. and get +5 IQ
Something

{{{{{KATANA}}}}

There's another version of this on here but I think there are 
a few minor mistakes so here's the way I play it.




[Intro]

e|----------------------------------------------------------------|
B|--------10--13-10-11-12-13--------------------------------------|
G|----------------------------------------------------------------|
D|----------------------------------------------------------------|
A|----------------------------------------------------------------|
E|----------------------------------------------------------------|
(Played after every verse


[Verse 1]

C                        Cmaj7
Something in the way she moves,
C7                         F7
Attracts me like no other lover.
D7                         G
Something in the way she woos me.
   Am                        Am(maj7)
I don't wanna leave her now,
    Am7                 (hold)
You know I believe, and how.

e|----------------------------------------------------------------|
B|--------10--13-10-11-12-13--------------------------------------|
G|----------------------------------------------------------------|
D|----------------------------------------------------------------|
A|----------------------------------------------------------------|
E|----------------------------------------------------------------|


[Verse 2]

C                            Cmaj7
Somewhere in her smile she knows,

C7                            F7
  That I don't need no other lover.

D7                           G
Something in her style that shows me.

   Am                        Am(maj7)
I don't wanna leave her now,

     Am7                  (hold)
You know I believe and how.

e|----------------------------------------------------------------|
B|--------10--13-10-11-12-13--------------------------------------|
G|----------------------------------------------------------------|
D|----------------------------------------------------------------|
A|----------------------------------------------------------------|
E|----------------------------------------------------------------|


[Bridge]

A                               C#m/G
  You're asking me will my love grow,
        D      G        A
I don't know, I don't know.
A                              C#m/G# 
  You stick around now, it may show,
        D      G        A
I don't know, I don't know.

(i like to play that lick here but you don't have to)
e|----------------------------------------------------------------|
B|--------10--13-10-11-12-13--------------------------------------|
G|----------------------------------------------------------------|
D|----------------------------------------------------------------|
A|----------------------------------------------------------------|
E|----------------------------------------------------------------|


[Chorus]

C                          Cmaj7
Something in the way she knows,
C7                      F7
And all I have to do is think of her.
D7                             G
Something in the things she shows me.
  Am                          Am(maj7)
I don't wanna leave her now.
    Am7                 (hold)
You know I believe and how.

e|----------------------------------------------------------------|
B|--------10--13-10-11-12-13--------------------------------------|
G|----------------------------------------------------------------|
D|----------------------------------------------------------------|
A|----------------------------------------------------------------|
E|----------------------------------------------------------------|


            
            
Suggest correction
Creating personal tab
Creating personal tab
You can edit any tab online and save it as your Personal.

You can edit, replace or remove any tab part or add personal notes – all changes will be seen only by you.

Personal tabs can be accessed anytime from any device, even offline.
Learn more »
comments
print report bad tab
guest
You may want to rate the tab now too:
select rating
Wanna post a correction for this tab? Suggest correction