Oops, an error
Loading. Please wait.
We have an official Something tab made by UG professional guitarists. Check out the tab »
×

Something chords

973,092 views 2,820 this week
37 commentsread comments
1 2 3 4 5
x 574
add to favorites
×
Save as Personal and add changes to this tab that will be seen only by you. Learn more ›
×
You can save this tab as Personal to edit and correct it or add notes. All changes will be seen only by you. Learn more »
launch autoscroll
font size
0
reset
transpose
0
reset
simplify chords
display chords
guitar tuner
backing track
0:00
0:00
edit
Autoscroll
slow
fast
+/-
esc
set tempo
stop
Strumming
There is no strumming pattern for this song yet. and get +5 IQ
[Chords]
C#m/G#: (446654)
F#m7: (242222)
Cmaj7: (x32000)
C7: (x32310)

[Intro]
e|----------------------------------------------------------------|
B|--------10--13br-10-11-12-13------------------------------------|
G|----------------------------------------------------------------|
D|----------------------------------------------------------------|
A|----------------------------------------------------------------|
E|----------------------------------------------------------------|
(this lick is played after every verse and the solo)

[Verse 1]
C                        Cmaj7
Something in the way she moves,
C7                         F
Attracts me like no other lover.
D7                         G
Something in the way she woos me.
   Am                        Am(maj7)
I don't wanna leave her now,
     Am7                 D9
You know I believe, and how.

[Instrumental]
e|----------------------------------------------------------------|
B|--------10--13br-10-11-12-13------------------------------------|
G|----------------------------------------------------------------|
D|----------------------------------------------------------------|
A|----------------------------------------------------------------|
E|----------------------------------------------------------------|

[Verse 2]
C                            Cmaj7
Somewhere in her smile she knows,
C7                            F      F/E
  That I don't need no other lover.
D7                           G
Something in her style that shows me.
   Am                        Am(maj7)
I don't wanna leave her now,
     Am7                 D9
You know I believe and how.

[Instrumental]
e|----------------------------------------------------------------|
B|--------10--13br-10-11-12-14------------------------------------|
G|----------------------------------------------------------------|
D|----------------------------------------------------------------|
A|----------------------------------------------------------------|
E|----------------------------------------------------------------|

[Verse 3]
A                C#m/G#          F#m7   A/E
  You're asking me will my love grow,
        D      G        A
I don't know, I don't know.
A             C#m/G#            F#m7  A/E
  You stick around now, it may show,
        D      G        A
I don't know, I don't know.

(I personally dont play the C#m/G# you can just skip it although its incorrect.)

[Verse 4]
C                          Cmaj7
Something in the way she knows,
C7                      F
And all I have to do is think of her.
D7                             G
Something in the things she shows me.
  Am                          Am(maj7)
I don't wanna leave her now.
    Am7                 D9
You know I believe and how.

[Outro]
e|----------------------------------------------------------------|
B|--------10--13br-10-11-12-13------------------------------------|
G|----------------------------------------------------------------|
D|----------------------------------------------------------------|
A|----------------------------------------------------------------|
E|----------------------------------------------------------------|

            
            
Suggest correction
Creating personal tab
Creating personal tab
You can edit any tab online and save it as your Personal.

You can edit, replace or remove any tab part or add personal notes – all changes will be seen only by you.

Personal tabs can be accessed anytime from any device, even offline.
Learn more »
comments
print report bad tab
37 comments total. Showing first comments.
0 reply
MilANimaL 10 Oct 24, 2007 06:02 PM

Well done man :)) well done!

+1 reply
RangerDan88 21 Apr 11, 2008 08:59 PM

In order to continue with chords rather than playing the signature line after "you know I believe and how," I've it would go from D9 to F, and then another chord, and then to G, then to the following verse. Does anyone know what that other chord would be between F and G? I can't figure it out, and I know it's not F#, as that sounds horrendous. Any help?

+3 reply
RangerDan88 21 Apr 11, 2008 09:09 PM

Ah, never mind. It would be Eb: D9 to F to Eb to G and back to C, or A if it's going to the bridge.

guest
You may want to rate the tab now too:
select rating
Wanna post a correction for this tab? Suggest correction