Oops, an error
Loading. Please wait.
We have an official Something tab made by UG professional guitarists. Check out the tab »
×

Something Tab

version 2
version 2

Whole song

24,428 views 6 this week
1 commentread comment
1 2 3 4 5
x 7
add to favorites
×
Save as Personal and add changes to this tab that will be seen only by you. Learn more ›
×
You can save this tab as Personal to edit and correct it or add notes. All changes will be seen only by you. Learn more »
save as personal
new!
launch autoscroll
font size
0
reset
how to read this tab
guitar tuner
backing track
0:00
0:00
Autoscroll
slow
fast
+/-
esc
set tempo
stop
Beatles - Something
Submitted By: pick
EMail: confab2@comcast.net

Tuning: Standard (E A D G B E)

OK this is an easy way to play "Something."  it comes from the Easy Guitar
Beatles Best book.  I just wanted to submit it because
it is alot easier to play and sounds exactly like the
real song.  Im not sure about timing but if u ever heard
the song you should be able to figure it out.
If you have any questions or comments Email me at
confab2@comcast.net


INTRO
E|------------------------------------------------------------------------||
B|-------1--------0-------------------------------------------------------||
G|-2--2-----2--3----------------------------------------------------------||
D|-3----------------------------------------------------------------------||
A|------------------------------------------------------------------------||
E|------------------------------------------------------------------------||

Lyrics
L=legato
E|-------------------0--0--0--0-------------------------------------------||
B|-1--1-1-1-1--1--0--0--0--0--1--------------1--3--1----------------------||
G|-0-----------------0--0--0--3--3--3--3--3-------------------------------||
D|-2----------------------------------------------------------------------||
A|------------------------------------------------------------------------||
E|------------------------------------------------------------------------||

E|-------1--0---------------------------1--1------------------------------||
B|1------1--1--3-3-3-3-1--3--0---0------0--0------------------------------||
G|---2---2--0--2---------------2---2L0--0--0--0---------------------------||
D|-------------0----------------------------------------------------------||
A|------------------------------------------------------------------------||
E|------------------------------------------------------------------------||

E|--------------0-----0-------0------2--1---------------------------------||
B|---1---3---1--1-------3-1-3---1----1--1-----1--------0------------------||
G|-2---2---2----1--2--------------2--2--2--2-----2--3---------------------||
D|------------------------------------------------------------------------||
A|------------------------------------------------------------------------||
E|------------------------------------------------------------------------||

You play the lyrics part twice before you move on to the next part


                   Bridge
E|-0--0-0-0-0-0-0--0-----------0-2----------0-2----------------------------------------------|||
B|-2--2-2-2-2-2-2--2-2-2-2-2-2-----2---------------------------------------------------------|||
G|-2--2-2-2-2-2-2--2------------------2--2---------------------------------------------------|||
D|------------------------------------4--2---------------------------------------------------|||
A|-------------------------------------------------------------------------------------------|||
E|-------------------------------------------------------------------------------------------|||

E|-2-----3--2-0------------------------0-2----------------------------------------------||
B|-3--3--0----2--------------2-2-2-2-2--------------------------------------------------||
G|-2-----0----2--1--0-------------------------------------------------------------------||
D|---------------------4-2--------------------------------------------------------------||
A|-------------------------0------------------------------------------------------------||
E|--------------------------------------------------------------------------------------||

E|----------0-2-2--------3--2-0-------------------------------------------------------||
B|-2------------3--3--3--0----1--0----------------------------------------------------||
G|----2--2------2--------0----0-----2--0----------------------------------------------||
D|----4--2-------------------------------2--------------------------------------------||
A|------------------------------------------------------------------------------------||
E|------------------------------------------------------------------------------------||

E|-0-----------0--0--------------0--0---------------------------------------------------------|||
B|-1-----------1--0--------------0--1-------------1-1-3L1-------------------------------------|||
G|-0------0----0--0-----2-2L0----0--3-----0L2-0-3---------------------------------------------|||
D|----0L2---2-------0L2-------2-------0L2-----------------------------------------------------|||
A|--------------------------------------------------------------------------------------------|||
E|--------------------------------------------------------------------------------------------|||

E|-0-------------------------------------------------------------------------------------|||
B|---3-1------1-1------------------------0---0---0-------2L1-----------------------------|||
G|-------2--2-----2---0-0------------------2---2---2-0-0---------------------------------|||
D|------------------2-----2--------0-4-4-------------------------------------------------|||
A|--------------------------0--2-0-------------------------------------------------------|||
E|---------------------------------------------------------------------------------------|||

E|---0-------0---0-------0---0-------0-----0-3-0---------1------------------------------------------|||
B|-0---4-3-1---3---3-1-1---3---3-1-1---3-1-------3-1-3-1-1---1-------0------------------------------|||
G|-------------------------------------------------------2-2---2--3---------------------------------|||
D|--------------------------------------------------------------------------------------------------|||
A|--------------------------------------------------------------------------------------------------|||
E|--------------------------------------------------------------------------------------------------|||

Now you go back and play the lyrics section once.
Then u play this


E|-1-------------0-0-0-0-0-4L3-2--1----------------------------------------------------------|||
B|-1---1------0--2-2-2-2-2--------1---1-----0--1---------------------------------------------|||
G|-2-2---2-3-----2-2-2-2-2--------2-2---2-3----0---------------------------------------------|||
D|---------------------------------------------2---------------------------------------------|||
A|---------------------------------------------3---------------------------------------------|||
E|-------------------------------------------------------------------------------------------|||
And there you have it. Enjoy.
Suggest correction
comments
print report bad tab
1 comment total.
0 reply
diozeppelin26 10 Aug 02, 2012 04:39 PM

Too bad it doesn't sound much like the real song.

guest
Wanna post a correction for this tab? Suggest correction