Oops, an error
Loading. Please wait.
We have an official Something tab made by UG professional guitarists. Check out the tab »
×

Something ukulele

829 views 15 this week
no commentswrite comment
1 2 3 4 5
x 7
add to favorites
×
Save as Personal and add changes to this tab that will be seen only by you. Learn more ›
×
You can save this tab as Personal to edit and correct it or add notes. All changes will be seen only by you. Learn more »
launch autoscroll
font size
0
reset
transpose
0
reset
simplify chords
display chords
guitar tuner
backing track
0:00
0:00
edit
Autoscroll
slow
fast
+/-
esc
set tempo
stop
About this tab version
This version includes all of the tablatures. Was this info helpful? Yes No
Strumming
There is no strumming pattern for this song yet. and get +5 IQ

[Intro]
A|-0--3--0--1--2--3--3-|
E|-0--0--0--0--0--0--0-|
C|-0--------------0--0-|
G|-0--------------0--0-|

[Verse 1]
C                        Cmaj7
Something in the way she moves
C7                        F
Attracts me like no other lover
D                D7      G
Something in the way she woos me

[Chorus]
Am                    AmM7
Don't wanna leave her now
    Am7                D7
You know I believe and how

[Riff]
A|-0--3--0--1--2--3--3-|
E|-2--0--0--0--0--0--0-|
C|-0--------------0--0-|
G|-2--------------0--0-|

[Verse 2]
C                          Cmaj7
Somewhere in her smile she knows
C7                         F
That I don't need no other lover
D                D7         G
Something in her style that shows me

[Chorus]
Am                    AmM7
Don't wanna leave her now
    Am7                D7
You know I believe and how

[Riff]
A|-0--3--0--1--2--3--3-|
E|-2--0--0--0--0--0--0-|
C|-0--------------0--0-|
G|-2--------------0--0-|

[Bridge]
A             Amaj7           F#m
You're asking me will my love grow
        D     G       A
I don't know, I don't know
A          Amaj7            F#m
You stick around now it may show
        D     G       A
I don't know, I don't know

[Riff]
A|-0--3--0--1--2--3--3-|
E|-2--0--0--0--0--0--0-|
C|-0--------------0--0-|
G|-2--------------0--0-|

[Instrumental]

C Cmaj7 C7 F
D D7 G
Am AmM7 Am7
D7

[Riff]
A|-0--3--0--1--2--3--3-|
E|-2--0--0--0--0--0--0-|
C|-0--------------0--0-|
G|-2--------------0--0-|

[Verse 3]
C                        Cmaj7
Something in the way she knows
C7                      F
And all I have to do is think of her
D                D7         G
Something in the things she shows me

[Chorus]
Am                    AmM7
Don't wanna leave her now
    Am7                D7
You know I believe and how...

[Riff]
A|-0--3--0--1--2--3--3-|-0--3\2--0--1--2--3--|
E|-2--0--0--0--0--0--0-|---------------------|
C|-0--------------0--0-|---------------------|
G|-2--------------0--0-|---------------------|

            
            
Suggest correction
Creating personal tab
Creating personal tab
You can edit any tab online and save it as your Personal.

You can edit, replace or remove any tab part or add personal notes – all changes will be seen only by you.

Personal tabs can be accessed anytime from any device, even offline.
Learn more »
comments
print report bad tab
guest
You may want to rate the tab now too:
select rating
Wanna post a correction for this tab? Suggest correction