Oops, an error
Loading. Please wait.

Something Tab

version 4
version 4
363,106 views 189 this week
16 commentsread comments
1 2 3 4 5
excellent!
x 58
add to favorites
launch autoscroll
font size
0
reset
how to read this tab
guitar tuner
Tab Pro tools
  • play this tab
  • loop segment
  • change instrument
  • show fretboard
  • metronome
×
Best way to learn
"Something"
Autoscroll
slow
fast
+/-
esc
set tempo
stop
Contributor
  ---------------------------------------------------------

  THE BEATLES - SOMETHING (Harrison) From ABBEY ROAD album. 
                Released 26th September 1969.

  ---------------------------------------------------------

  Tabbed by:PJVillanueva





  Something in the way she moves
  Attracts me like no other lover
  Something in the way she woos me

  I don’t want to leave her now
  You know I believe and how

  Somewhere in her smile she knows
  That I don’t need no other lover
  Something in her style that shows me

  Don’t want to leave her now
  You know I believe and how

  You’re asking me will my love grow
  I don’t know, I don’t know
  You stick around now it may show
  I don’t know, I don’t know

  Something in the way she knows
  And all I have to do is think of her
  Something in the things she shows me

  Don’t want to leave her now
  You know I believe and how 




                            xxxxxx  x
                                    F               Eb      G
  e|------- ------- ------- -------|----5-- 5---5-- 3------ 3------|
  B|-------------------------------|----6---6---6---4-------3------|
  G|-------------------------------|----5---5---5---3-------4------|
  D|-------------------------------|3---3---3---3---5-------5------|
  A|-------------------------------|-------------------------------|
  E|-------------------------------|-------------------------------|
                                       
  e|------- ------- ------- -------|------- ------- ------- -------|
  B|-------------------------------|----10-B13R-10--11-~----12-~---|
  G|-------------------------------|-------------------------------|
  D|-------------------------------|-------------------------------|
  A|-------------------------------|-------------------------------|
  E|-------------------------------|-------------------------------|




    C                               Cmaj7
  e|0------ 0-----0 ----0-- 0------|0---0-- 0------ ------- 0------|
  B|1-------1-----1-----1---1------|0---0---0---------------0------|
  G|0-------0-----0-----0---0------|0---0---0---------------0------|
  D|2-------2-----2-----2---2------|2---2---2---------------2------|
  A|3-------3-----3-----3---3------|3---3---3---3---3---3-------3--|
  E|-------------------------------|-------------------------------|
    Something               she moves
         in  the way
  e|------- ------- ------- -------|------- ------- ------- -------|
  B|13-~---------------------------|-------------------------------|
  G|-------------------------------|-------------------------------|
  D|-------------------------------|-------------------------------|
  A|-------------------------------|-------------------------------|
  E|-------------------------------|-------------------------------|




    C7                              F
  e|0------ 0------ ----0-- 0-0-0--|1------ 1---1-- ------1 ----1--|
  B|1-------1-----------1---1-1-1--|1-------1---1---------1-----1--|
  G|3-------3-----------3---3-3-3--|2-------2---2---------2-----2--|
  D|2-------2-----------2---2-2-2--|3-------3---3---3-------2------|
  A|3-------3-----------3---3-3-3--|-------------------------------|
  E|-------------------------------|-------------------------------|
         Attracts like  no  other lover
              me 


    D               D7              G
  e|2------ --2---- 2-----2 --2---2|3------ --3---- ------- -------|
  B|3---------3-----1-----1---1---1|0-----------1--/3--------------|
  G|2---------2-----2-----2---2---2|0-------2-----2/4--------------|
  D|0---------0-----0-----0---0---0|-------------------------------|
  A|-------------------------------|-------------------------------|
  E|-------------------------------|-------------------------------|
    Something               she woos    me                        I
          in  the way



    Am              Ammaj7          Am7             Am6
  e|0------ 0------ 0------ 0------|0------ 0------ 0------ 0------|
  B|1-------1-------1-------1------|1-------1-------1-------1------|
  G|2-------2-------1-------1------|0-------0-------2-------2------|
  D|2-------2-------2-------2------|2-------2-------4-------4------|
  A|0-------0-------0-------0------|0-------0-------0-------0------|
  E|-------------------------------|-------------------------------|
    don’t      her now          You know  
      want                            I believe 
       to leave                               and how
  e|12--12- 12--12- 12--12- 12--12-|12--12- 12--12- 12--12- 12--12-|
  B|13--13--13--13--13--13--13--13-|13--13--13--13--13--13--13--13-|
  G|14--14--14--14--13--13--13--13-|12--12--12--12--11--11--11--11-|
  D|-------------------------------|-------------------------------|
  A|-------------------------------|-------------------------------|
  E|-------------------------------|-------------------------------|

  e|------- ------- ------- -------|------- ------- ------- -------|
  B|-------------------------------|-------------------------------|
  G|--------------------7-7-7/9-~--|----------------------7/9-~----|
  D|-------------------------------|-------------------------------|
  A|-------------------------------|-------------------------------|
  E|-------------------------------|-------------------------------|




    F               Eb      G
  e|----5-- 5---5-- 3------ 3------|
  B|----6---6---6---4-------3------|
  G|----5---5---5---3-------4------|
  D|----3---3---3---5-------5------|
  A|-------------------------------|
  E|-------------------------------|

  e|------- ------- ------- -------|
  B|----10-B13R-10--11-~----12-~---|
  G|-------------------------------|
  D|-------------------------------|
  A|-------------------------------|
  E|-------------------------------|       




    C                               Cmaj7
  e|0------ 0------ 0------ 0------|----0-- ----0-- 0------ 0------|
  B|1-------1-------1-------1------|----0-------0---0-------0------|
  G|0-------0-------0-------0------|----0-------0---0-------0------|
  D|2-------2-------2-------2------|----2-------2---2-------2------|
  A|3-------3-------3-------3------|----3-------3---3-------3------|
  E|-------------------------------|-------------------------------|
    Somewhere               she knows   
         in   her smile
  e|------- ------- ------- -------|------- ------- ------- -------|
  B|13-~---------------------------|-------------------------------|
  G|-------------------------------|-------------------------------|
  D|-------------------------------|-------------------------------|
  A|-------------------------------|-------------------------------|
  E|-------------------------------|-------------------------------|




    C7                              F
  e|0------ 0------ 0------ -------|1------ 1---1-- 1------ 1------|
  B|1-------1-------1--------------|1-------1---1---1-------1------|
  G|3-------3-------3--------------|2-------2---2---2-------2------|
  D|2-------2-------2--------------|3-------3---3---3-------2------|
  A|3-------3-------3--------------|-------------------------------|
  E|-------------------------------|-------------------------------|
       That   don’t need    other lover
          I             no 

                                                        x   XXXX
    D7                              G
  e|2------ 2------ ------- -------|3---3-3 ----3-3 ------- -------|
  B|1-------1----------------------|0---0-0H1---1-1/3--------------|
  G|2-------2----------------------|0---0-0H2---2-2/4--------------|
  D|0-------0----------------------|-------------------------------|
  A|-------------------------------|-------------------------------|
  E|-------------------------------|-------------------------------|
    Something           that   shows    me                       
         in  her style 


    Am              Ammaj7          Am7             Am6
  e|0------ 0------ 0------ 0------|0------ 0------ 0------ 0------|
  B|1-------1-------1-------1------|1-------1-------1-------1------|
  G|2-------2-------1-------1------|0-------0-------2-------2------|
  D|2-------2-------2-------2------|2-------2-------4-------4------|
  A|0-------0-------0-------0------|0-------0-------0-------0------|
  E|-------------------------------|-------------------------------|
    Don’t      her now          You know  
      want                            I believe 
       to leave                               in  how
  e|12--12- 12--12- 12--12- 12--12-|12--12- 12--12- 12--12- 12--12-|
  B|13--13--13--13--13--13--13--13-|13--13--13--13--13--13--13--13-|
  G|14--14--14--14--13--13--13--13-|12--12--12--12--11--11--11--11-|
  D|-------------------------------|-------------------------------|
  A|-------------------------------|-------------------------------|
  E|-------------------------------|-------------------------------|

  e|------- ------- ------- -------|------- ------- ------- -------|
  B|-------------------------------|-------------------------------|
  G|-------------------------------|------------------------7/9-5-~|
  D|-------------------------------|-------------------------------|
  A|-------------------------------|-------------------------------|
  E|-------------------------------|-------------------------------|




    F               Eb      G       A
  e|----5-- 5---5-- 3------ 3------|5------ ------- ----5-- 5---5--|
  B|----6---6---6---4-------3------|5-------------------5---5---5--|
  G|----5---5---5---3-------4------|6-------------------6---6---6--|
  D|----3---3---3---5-------5------|7-------------------7---7---7--|
  A|-------------------------------|-------------------------------|
  E|-------------------------------|-------------------------------| 

  e|------- ------- ------- -------|------- ------- ------- -------|
  B|----10-B13R-10--11-~----12-~-12/14-----------------------------|
  G|-------------------------------|-------------------------------|
  D|-------------------------------|-------------------------------|
  A|-------------------------------|-------------------------------|
  E|-------------------------------|-------------------------------|




                    Dbm                 F#m         E
  e|----5-- --5---- 4---4-- --4----|----2-- --2---2 0---0-- --0----|
  B|----5-----5-----5---5-----5----|----2-----2---2-0---0-----0----|
  G|----6-----6-----6---6-----6----|----2-----2---2-1---1-----1----|
  D|----7-----7-----6---6-----6----|----4-----4---4-2---2-----2----|
  A|----7-----7-----4---4-----4----|----4-----4---4-2---2-----2----|
  E|----5-----5--------------------|----2-----2---2-0---0-----0----|
          You’re        will  love                          I don't 
            asking        my      grow                            know
                  me


    D               G               A
  e|2-----2 ----2-- 3------ -------|------- ------- ------- -------|
  B|3-----3-----3---3--------------|2-----------2-----------2------|
  G|2-----2-----2---0--------------|2-----------2-----------2------|
  D|0-----0-----0---0--------------|2-----------2-----------2------|
  A|-------------------------------|0------------------------------|
  E|----------------3--------------|------4-----3-----2-----1---0--|
                I             don't know



                    Dbm             F#m             E
  e|----5-- --5---- 4---4-- --4---4|----2-- --2---2 0---0-- --0----|
  B|----5-----5-----5---5-----5---5|----2-----2---2-0---0-----0----|
  G|----6-----6-----6---6-----6---6|----2-----2---2-1---1-----1----|
  D|----7-----7-----6---6-----6---6|----4-----4---4-2---2-----2----|
  A|----7-----7-----4---4-----4---4|----4-----4---4-2---2-----2----|
  E|----5-----5--------------------|----2-----2---2-0---0-----0----|
         You  around    now it    show                      I don't
            stick             may                                 know


    D               G               C                           G
  e|2---2-- --2---- 3---3-- ----3--|0-----0 ----0-- --0---- -------|
  B|3---3-----3-----3---3-------3--|1-----0-----1-----1------------|
  G|2---2-----2-----0---0-------0--|0-----0-----2-----0-----0---0--|
  D|0---0-----0-----0---0-------0--|2-----2-----2-----2-----2---0--|
  A|----------------2---2-------2--|3-----3-----3-----3-----3---2--|
  E|----------------3---3-------3--|----------------------------3--|
              I               don't know



    C                               Cmaj7
  e|0------ 0------ ------0 0------|0------ 0------ ------3 0------|
  B|1-------1-------------1-1------|0-------0-------------0-0------|
  G|0-------0-------------0-0------|0-------0-------------0-0------|
  D|2-------2-------------2-2------|2-------2-------------2-2------|
  A|3-------3-------------3-3------|3-------3-------------3-3------|
  E|-------------------------------|-------------------------------|
                                            B  B R
  e|------- ------- ------- -------|------- ------- ------- -------|
  B|------------8------------------|--------8108108----------------|
  G|--------7H9-----9-~------------|----7H9---------9-~------------|
  D|-------------------------------|-------------------------------|
  A|-------------------------------|-------------------------------|
  E|-------------------------------|-------------------------------|




    C7                              F
  e|0------ 0------ 0-----0 --0-0--|1------ 1------ 1-----1 1---1--|
  B|1-------1-------1-----1---1-1--|1-------1-------1-----1-1---1--|
  G|3-------3-------3-----3---3-3--|2-------2-------2-----2-2---2--|
  D|2-------2-------2-----2---2-2--|3-------3-------3-------2------|
  A|3-------3-------3-----3---3-3--|-------------------------------|
  E|-------------------------------|-------------------------------|
            H                 B R  B R
  e|------- ------- ------- -------|------- ------- --8-8\- -------|
  B|--------810-8---11--13--13-1513|171513---------/10--------8-8\-|
  G|----7B9------------------------|--------14-~-----------/9------|
  D|-------------------------------|-------------------------------|
  A|-------------------------------|-------------------------------|
  E|-------------------------------|-------------------------------|




    D7                              G
  e|2------ 2-----2 2-----2 -------|3---3-3 3-3-3-- 3------ -------|
  B|1-------1-----1-1-----1--------|0---0-0H1-1-1-/-2--------------|
  G|2-------2-----2-2-----2--------|0---0-0H2-2-2-/-4--------------|
  D|0-------0-----0-0-----0--------|-------------------------------|
  A|-------------------------------|-------------------------------|
  E|-------------------------------|-------------------------------|
                                   B R B R
  e|------- ------- ------- -------|------- ------- 9-8-7--/12-11-10
  B|-----------------------B12-R-10|121012108----8-----------------|
  G|------------------11-11--------|-------------------------------|
  D|7-~-------B9R7-/12-------------|-------------------------------|
  A|-------------------------------|-------------------------------|
  E|-------------------------------|-------------------------------|




    Am              Ammaj7          Am7             Am6
  e|------- ----0-- 0------ ----0--|0-----0 ----0-- 0-----0 ----0--|
  B|------------1---1-----------1--|1-----1-----1---1-----1-----1--|
  G|------------2---1-----------1--|0-----0-----0---2-----2-----2--|
  D|------------2---2-----------2--|2-----2-----2---4-----4-----4--|
  A|------------0---0-----------0--|0-----0-----0---0-----0-----0--|
  E|-------------------------------|-------------------------------|

  e|12--12- 12--12- 12--12- 12--12-|12--12- 12--12- 12--12- 12--12-|
  B|13--13--13--13--13--13--13--13-|13--13--13--13--13--13--13--13-|
  G|14--14--14--14--13--13--13--13-|12--12--12--12--11--11--11--11-|
  D|-------------------------------|-------------------------------|
  A|-------------------------------|-------------------------------|
  E|-------------------------------|-------------------------------|
           (3B)            (4B)
  e|------- ------- ------- -------|------- ------- 12-10-8H10--8--|
  B|-------------------------------|--------------8----------------|
  G|---B9R7B9R7B9R75---B9R7B9R7B9R75---B9R7B9R75/9-----------------|
  D|-------------------------------|-------------------------------|
  A|-------------------------------|-------------------------------|
  E|-------------------------------|-------------------------------|




    F               Eb      G
  e|5------ 5---5-- 3------ 3------|
  B|6-------6---6---4-------3------|
  G|5-------5---5---3-------4------|
  D|3-------3---3---5-------5------|
  A|-------------------------------|
  E|-------------------------------|

  e|------- ------- ------- -------|
  B|10------13\10---11-~----12-~---|
  G|-------------------------------|
  D|-------------------------------|
  A|-------------------------------|
  E|-------------------------------|     




    C                               Cmaj7
  e|0------ 0------ ------- 0------|0------ 0-----0 0---0-- 0-0-0--|
  B|1-------1---------------1------|0-------0-----0-0---0---0-0-0--|
  G|0-------0---------------0------|0-------0-----0-0---0---0-0-0--|
  D|2-------2---------------2------|2-------2-----2-2---2---2-2-2--|
  A|3-------3---------------3------|3-------3-----3-3---3---3-3-3--|
  E|-------------------------------|-------------------------------|
    Something               she knows
         in  the way
  e|------- ------- ------- -------|------- ------- ------- -------|
  B|13-~---------------------------|-------------------------------|
  G|-------------------------------|-------------------------------|
  D|-------------------------------|-------------------------------|
  A|-------------------------------|-------------------------------|
  E|-------------------------------|-------------------------------|




    C7                              F
  e|0------ 0-----0 --0-0-- 0---0--|1------ ------- ------1 -------|
  B|1-------1-----1---1-1---1---1--|1---------------------1-1------|
  G|3-------3-----3---3-3---3---3--|2---------------------2-2------|
  D|2-------2-----2---2-2---2---2--|3---------------3-------2------|
  A|3-------3-----3---3-3---3---3--|-------------------------------|
  E|-------------------------------|-------------------------------|
      And all I have    to      is  think her 
                          do            of 
 

    D               D               G
  e|2------ 2------ 2------ -------|3---3-3 --3-3-3 --3-3-- 3------|
  B|3-------3-------1--------------|0---0-0H1-1-1-1/3-3-3---3------|
  G|2-------2-------2--------------|0---0-0H2-2-2-2/4-4-4---4------|
  D|0-------0-------0--------------|-------------------------------|
  A|-------------------------------|-------------------------------|
  E|-------------------------------|-------------------------------|
    Something           she     shows   me                        I
         in   the things



    Am              Ammaj7          Am7             Am6
  e|0------ 0------ ------- 0------|0------ 0------ ------- 0------|
  B|1-------1---------------1------|1-------1---------------1------|
  G|2-------2---------------1------|0-------0---------------2------|
  D|2-------2---------------2------|2-------2---------------4------|
  A|0-------0---------------0------|0-------0---------------0------|
  E|-------------------------------|-------------------------------|
    don’t      her now          You know  
      want                            I believe 
       to leave                               and how                 
  e|12--12- 12--12- 12--12- 12--12-|12--12- 12--12- 12--12- 12--12-|
  B|13--13--13--13--13--13--13--13-|13--13--13--13--13--13--13--13-|
  G|14--14--14--14--13--13--13--13-|12--12--12--12--11--11--11--11-|
  D|-------------------------------|-------------------------------|
  A|-------------------------------|-------------------------------|
  E|-------------------------------|-------------------------------|

  e|------- ------- ------- -------|------- ------- ------- -------|
  B|-------------------------------|----------------------------8--|
  G|-------------------------------|----------------------7/9------|
  D|-------------------------------|-------------------------------|
  A|-------------------------------|-------------------------------|
  E|-------------------------------|-------------------------------|




    F               Eb      G       A
  e|5---5-- 5---5-- 3------ 3------|5------ ------- --5-5-5 5-5-5--|
  B|6---6---6---6---4-------3------|5-----------------5-5-5-5-5-5--|
  G|5---5---5---5---3-------4------|6-----------------6-6-6-6-6-6--|
  D|3---3---3---3---5-------5------|7-----------------7-7-7-7-7-7--|
  A|-------------------------------|-------------------------------|
  E|-------------------------------|-------------------------------|

  e10/12--- ------- ------- -------|------- ------- ----16-15-14---|
  B|----10-B13R-10--11-~----12-~-12|14-~------------14--14---------|
  G|-------------------------------|-------------------------------|
  D|-------------------------------|-------------------------------|
  A|-------------------------------|-------------------------------|
  E|-------------------------------|-------------------------------|



                                   (.
    F               Eb      G       C                               
  e|5---5-- 5---5-- 3------ 3------|3------ ------- ------- -------|
  B|6---6---6---6---4-------3------|5------------------------------|
  G|5---5---5---5---3-------4------|5------------------------------|
  D|3---3---3---3---5-------5------|5------------------------------|
  A|-------------------------------|-------------------------------|
  E|-------------------------------|-------------------------------|

  e|------- ------- ------- -----7/|8------ ------- ------- -------|
  B|-----------------------------7/|8------------------------------|
  G|-----------------------------8/|9------------------------------|
  D|-----------------------------9/10------------------------------|
  A|-------------------------------|-------------------------------|
  E|-------------------------------|-------------------------------|

  e|------- ------- ------- -------|------- ------- ------- -------|
  B|----10-B13R-10--11-~----12-~-12|13--~--------------------------|
  G|-------------------------------|-------------------------------|
  D|-------------------------------|-------------------------------|
  A|-------------------------------|-------------------------------|
  E|-------------------------------|-------------------------------|








        B  Bend
        R  Release
        /  Slide up
        \  Slide down
        H  Hammer-on
        P  Pull-off
        ~  Vibrato
        +  Harmonic
        x  Mute note
        .  Play note like a dot in standard notation
        ^  Ties two notes together
        (. Pause



comments
print report bad tab
16 comments total. Showing first comments. show 1 bad comment
+3 reply
for_you_blue wrote on November 3 2005, 08:28 am

All very good, one major problem though, this song was a George Harrison song, and one of his best at that.

0 reply
PJVILL wrote on November 4 2005, 05:48 am

Of course!
Thank you very nmuch

I want to post or [tab]
guest
You may want to rate the tab now too:
select rating
Please do not post tabs as comments. Select "correction" instead!