Oops, an error
Loading. Please wait.
We have an official Something tab made by UG professional guitarists. Check out the tab »
×

Something tab

13,551 views 6 this week
2 commentsread comments
1 2 3 4 5
x 7
add to favorites
×
Save as Personal and add changes to this tab that will be seen only by you. Learn more ›
×
You can save this tab as Personal to edit and correct it or add notes. All changes will be seen only by you. Learn more »
launch autoscroll
font size
0
reset
how to read this tab
guitar tuner
backing track
0:00
0:00
edit
Autoscroll
slow
fast
+/-
esc
set tempo
stop
      Okay, let me explain the rules. The numbers on the lyrics tell you what part of
words to sing with where.


      |-1-----------------------------|
      |-1---10---12~13---10---11---12-|       
Intro |-2---10----------------8----12-|
      |-3---10----------------8----12-|
      |-3---------------------10---10-|
      |----------------------------10-|

      
      
      1               2               3               4
      |-0---0---0---0-|-0---0---0---0-|-0---0---0---0-|-1---1---------|
      |-1---1---1---1-|-0---0---0---0-|-1---1---1---1-|-1---1---------|
      |-0---0---0---0-|-0---0---0---0-|-3---3---3---3-|-2---2---------|
      |-2---2---2---2-|-2---2---2---2-|-2---2---2---2-|-3---3---3---2-|
      |-3---3---3---3-|-3---3---3---3-|-3---3---3---3-|-3---3---------|
      |---------------|---------------|---------------|---------------|
   1|Something in the way she moves|   3|Attracts me like no other lover|
   1|Somewhere in her smile she knows| 3|That I don't need no other lover|
      

      1               2               3               4
      |-0---0---0---0-|-3---3----3----|-------0---0---|-0---0---0---0-|
      |-3---3---3---3-|-3----3----1---|-1/3---3---3---|-0---1---1---1-|
      |-5---5---5---5-|-0-----2----2--|-2/4---4---4---|-0---2---2---2-|
      |-4---4---4---4-|-0-------------|-------5---5---|-0---2---2---2-|
      |-5---5---5---5-|-2-------------|-------5---5---|-0---0---0---0-|
      |---------------|-3-------------|---------------|-0-------------|
      |---------------|-3-------------|---------------|---------------|
   1|Something in the way she woos me|     4|Don't want to leave her|
   1|Something in her style that shows me| 4|Don't want to leave her|
      

      1               2               3                          (2nd time)
      |-0---0---0---0-|-0---0---5---5-|-1-----------------------|-----|
      |-1---1---1---1-|-1---1---5---5-|-1---10---12~13---11---12|12/14|
      |-1---1---1---0-|-0---0---5---5-|-2---10-----------8----12|12/14|
      |-2---2---2---2-|-2---2---4---4-|-3---10-----------8----12|12/14|
      |-0---0---0---0-|-0---0---5---5-|-3----------------10---10|10/12|
      |---------------|---------------|-----------------------10|10/12|
     1|now, you know I believe in how|
     1|now, you know I believe in how|
         

Okay after 1st time through repeat entire thing for second verse. Then it's the bridge...


      1               2               3                 4
      |-5---5---5---5-|-4---4---4---4-|-2---2---2---2/5-|-5-5-5-5-----|    
      |-5---5---5---5-|-5---5---5---5-|-2---2---2---2/5-|-5-5-5-5-----|
Speeds|-6---6---6---6-|-6---6---6---6-|-2---2---2---2/6-|-6-6-6-6-----|
up    |-7---7---7---7-|-6---6---6---6-|-4---4---4---4/7-|-7-7-7-7-----|
      |-7---7---7---7-|-4---4---4---4-|-4---4---4---4/7-|-7-7-7-7-----|
      |-5---5---5---5-|-4---4---4---4-|-2---2---2---2/5-|-5-5-5-5-----|
      1|You're asking| 2|me will my love| 3|grow|            4|I don't|
      1|You stick a|   2|round and it may|3|show|            4|I don't|
      
      
      1               2                              Play second time
      |-7---7-7-7-----|-3---3-----------------------|-----------------|
      |-7---7-7-7-----|-3---3-----------------------|-----------------|
      |-7---7-7-7-----|-3---3-----------------------|-----------------|
      |-7---7-7-7-----|-5---5---7-7-6-6-5-5-4-4-3-2-|-10-9-7----------|
      |-5---5-5-5-----|-5---5---0-0-0-0-0-0-0-0-0-0-|--------10-7-----|
      |-5---5-5-5-----|-3---3-----------------------|-------------10-8|
      1|know|         2|I don't|
      1|know|         2|I don't|
      
      
      |--------------|--------------|---------------------|-----------------|
      |-----8--------|----8~9-8~9---|----8/10/8-8/13-13-13|13~14-15~17-14-14|
 Solo |-7/9---9------|7/9---------9-|7/9------------------|-----------------|
      |--------------|--------------|---------------------|-----------------|
      |--------------|--------------|---------------------|-----------------|
      |--------------|--------------|---------------------|-----------------|



      |---------------|--------------------|---------------------------|
      |---13-13-------|--------------11~12-|11~12~11~12-8-8-8/14/13/12-|
      |-14-------12-12|---------11-11------|---------------------------|
      |--------14-----|-7-7-7/12-----------|---------------------------|
      |---------------|--------------------|---------------------------|
      |---------------|--------------------|---------------------------|



      |----------|----------|------------10/12/10-8-10|1------------------|
      |----------|----------|-----------8-------------|1-10-12~13-10-11-12|
      |7~8~7~8-5-|7~8~7~8-5-|7~8~7~8-5-9--------------|2-10----------8--12|
      |----------|----------|-------------------------|3-10----------8--12|
      |----------|----------|-------------------------|3-------------10-10|
      |----------|----------|-------------------------|-----------------10|


      1               2               3               4
      |-0---0---0---0-|-0---0---0---0-|-0---0---0---0-|-1---1---------|
      |-1---1---1---1-|-0---0---0---0-|-1---1---1---1-|-1---1---------|
      |-0---0---0---0-|-0---0---0---0-|-3---3---3---3-|-2---2---------|
      |-2---2---2---2-|-2---2---2---2-|-2---2---2---2-|-3---3---3---2-|
      |-3---3---3---3-|-3---3---3---3-|-3---3---3---3-|-3---3---------|
      |---------------|---------------|---------------|---------------|
   1|Something in the way she knows| 3|And all I have to do is think of her|
   

      1               2             3                 4
      |-0---0---0---0-|-3---3--3----|-------0---0-----|-0---0---0---0-|
      |-3---3---3---3-|-3----3--1---|-1/3---3---3-----|-0---1---1---1-|
      |-5---5---5---5-|-0-----2--2--|-2/4---4---4-----|-0---2---2---2-|
      |-4---4---4---4-|-0-----------|-------5---5-----|-0---2---2---2-|
      |-5---5---5---5-|-2-----------|-------5---5-----|-0---0---0---0-|
      |---------------|-3-----------|-----------------|-0-------------|
     1|Something in the things she shows me|   4|Don't want to leave her
   


      1               2               3         
      |-0---0---0---0-|-0---0---5---5-|-1-------------------------------|
      |-1---1---1---1-|-1---1---5---5-|-1---10---12~13---10---11---12/14|
      |-1---1---1---0-|-0---0---5---5-|-2---10----------------8----12/14|
      |-2---2---2---2-|-2---2---4---4-|-3---10----------------8----12/14|
      |-0---0---0---0-|-0---0---5---5-|-3---------------------10---10/12|
      |---------------|---------------|----------------------------10/12|



      |-1-------------------------------0-------------------------------|
      |-1---10---12~13---10---11---12---1-------------------------------|
      |-2---10----------------8----12---0-------------------------------|
      |-3---10----------------8----12---2-------------------------------|
      |-3---------------------10---10---3-------------------------------|
      |----------------------------10-----------------------------------|




     





            
            
Suggest correction
Creating personal tab
Creating personal tab
You can edit any tab online and save it as your Personal.

You can edit, replace or remove any tab part or add personal notes – all changes will be seen only by you.

Personal tabs can be accessed anytime from any device, even offline.
Learn more »
comments
print report bad tab
2 comments total.
-1 reply
Stratslasher515 130 Nov 28, 2007 01:51 PM

THE SOLO SUCKS

0 reply
FoxyGramps5543 52 Jul 24, 2008 11:45 PM

Yeah, I made this when I was in fifth grade. Just checking on how it's doing 5 years later. The solo is bad, I should've copied and pasted.

guest
Wanna post a correction for this tab? Suggest correction