Oops, an error
Loading. Please wait.
We have an official Strawberry Fields Forever tab made by UG professional guitarists. Check out the tab »
×
68,279 views 27 this week
4 commentsread comments
1 2 3 4 5
x 11
add to favorites
×
Save as Personal and add changes to this tab that will be seen only by you. Learn more ›
×
You can save this tab as Personal to edit and correct it or add notes. All changes will be seen only by you. Learn more »
launch autoscroll
font size
0
reset
how to read this tab
guitar tuner
backing track
0:00
0:00
edit
Autoscroll
slow
fast
+/-
esc
set tempo
stop
Author
    -----------------------------------------------------------

    THE BEATLES - STRAWBERRY FIELDS FOREVER (Lennon & McCartney)
                  Released as a double A side single, along with 
                  PENNY LANE, on 17th February 1967.
                  
    -----------------------------------------------------------

    Tabbed by:PJVillanueva





  
    There are four trumpets and three celli on this recording. 
    The chelli's low register & fretless glissandi and also the 
    slides played by George on his Stratocaster (he recorded 
    two tracks for this purpose), would be extremely difficult 
    to reproduce on a conventional guitar, unless using a slide 
    and a modified tuning. There are two more guitars on the 1st 
    third of the song: John's arpegiated one, which he played on 
    his Casino and a second with a bass played by George, surely
    also on his Strato.
    To be able to play the celli part & George's bass on guitar, 
    tune low E string to Db so you can reach the low notes. It 
    won't be a bother at all for playing the mellotron bits and 
    the brass, the piano or George's svaramandal. 
    The intro on mellotron by Paul is just as beautiful, as it is
    John's picking, which reminds me a lot of She Said She Said. 
    That guy knew how to play guitar (remember his solos on You 
    can't Do That, Hey Bulldog, One After 909 or Get Back among 
    others?) Penny Lane and Strawberry Fields Forever, of course, 
    are really great works of art, as She Said She Said is.





    Let me take you down, 
   'Cause I'm going to Strawberry Fields.
    Nothing is real and nothing to get hung about.
    Strawberry Fields forever.

    Living is easy with eyes closed, 
    Misunderstanding all you see.
    It's getting hard to be someone but it all works out, 
    It doesn't matter much to me.

    Let me take you down, 
   'Cause I'm going to Strawberry Fields.
    Nothing is real and nothing to get hungabout.
    Strawberry Fields forever.

    No one I think is in my tree, 
    I mean it must be high or low.
    That is you can't you know tune in but it's all right, 
    That is I think it's not too bad.

    Let me take you down, 
   'Cause I'm going to Strawberry Fields.
    Nothing is real and nothing to get hungabout.
    Strawberry Fields forever.

    Always, no sometimes, think it's me, 
    But you know I know when it's a dream.
    I think I know I mean ah 'Yes' but it's all wrong, 
    That is I think I disagree.

    Let me take you down, 
   'Cause I'm going to Strawberry Fields.
    Nothing is real and nothing to get hungabout.
    Strawberry Fields forever.
    Strawberry Fields forever.
    Strawberry Fields forever. 






    MELLOTRON INTRO 
    E               Abm             E7              D       Fm6               
  e|7------ 7------ 7------ 7------|7------ 7------ 5------ 4------|
  B|9-------9-------9-------9------|9-------9-------7-------6------|
  G|9---------------8--------------|7---------------7-------7------|
  D|-------------------------------|-------------------------------|
  A|-------------------------------|-------------------------------|
  E|-------------------------------|-------------------------------|




    F#m             E               D       A
  e|------- 5------ ------- 4------|2------ 0------|
  B|----7---------------5----------|3-------2------|
  G|6---------------4--------------|2--------------|
  D|-------------------------------|---------------|
  A|-------------------------------|---------------|
  E|-------------------------------|---------------|



                                  x X   x     x X   x     X x X x
 
  e|------- ------- ------- -------|------- ------- ------- -------|
  B|-------------------------------|-------------------------------|
  G|2------------------------------|-------------------------------|
  D|-------------------------------|-------------------------------|
  A|-------------------------------|-------------------------------|
  E|-------------------------------|-------------------------------|
                                                    A
  e|------- ------- ------- -------|------- ------- ------- -------|
  B|-------------------------------|----------------14-------------|
  G|-------------------------------|----------------14----------\--|
  D|-------------------------------|----------------14-------------|
  A|0------------------------------|-------------------------------|
  E|0------------------------------|-------------------------------|
            Let me  take        down       'cause   going       to
                        you                     I'm

    00:14
    X
    Em
  e|------- ------- ------- -------|------- ------- ------- -------|
  B|8------------------------------|-------------------------------|
  G|9------------------------------|-------------------------------|
  D|9------------------------------|-------------------------------|
  A|-------------------------------|-------------------------------|
  E|-------------------------------|-------------------------------|
    Guitar 1
  e|------- ------- ------- -------|------- ------- ------- -------|
  B|-------------------------------|------------------0-----0------|
  G|0-----------------------0------|--------0-----0----------------|
  D|--------2----------------------|--0-----------------0---------2H
  A|--------------2---------------0H2---------------------------2--|
  E|-------------------------------|-------------------------------|

  e|------- ------- ------- -------|------- ------- ------- -------|
  B|-------------------------------|-------------------------------|
  G|-------------------------------|-------------------------------|
  D|5---5---5---5---5---5---5---5--|5---5---5---5---5---5---5---5--|
  A|-------------------------------|-------------------------------|
  E|-------------------------------|-------------------------------|

  e|------- ------- ------- -------|------- ------- ------- -------|
  B|-------------------------------|-------------------------------|
  G|----------4---4-4---4-4-----4--|4-4-----4-----4-----4-----4----|
  D|-------------------------------|-------------------------------|
  A|-------------------------------|-------------------------------|
  E|-------------------------------|-------------------------------|
                    Strawberry      Fields



    F#
  e|------- ------- ------- -------|------- ------- ------- -------|
  B|-------------------------------|--------2-----2----------------|
  G|--3-----3---------3------------|--3---------------3-----3------|
  D|4-------------2H4-------2------|----2---------------2---------2P
  A|------------------------------2H4------------------------------|
  E|-------------------------------|-------------------------------|

  e|------- ------- ------- -------|------- ------- ------- -------|
  B|-------------------------------|-------------------------------|
  G|-------------------------------|-------------------------------|
  D|4-------4---4---4---4---4---4--|4---4---4---4---4---4---4---4--|
  A|----4--------------------------|-------------------------------|
  E|-------------------------------|-------------------------------|
                    nothing     is  real                        and



    D               F#
  e|------- ------- ------- -------|------- -------|
  B|--------3---------------2------|---------------|
  G|--2---------------3-----------3|--------3------|
  D|0-------------2H4--------------|--2------------|
  A|-------------------------------|---------------|
  E|-------------------------------|---------------|

  e|------- ------- ------- -------|------- -------|
  B|-------------------------------|---------------|
  G|-------------------------------|---------------|
  D|4---4---4---4---4---4---4---4--|4---4---4---4--|
  A|-------------------------------|---------------|
  E|-------------------------------|---------------|
    nothing to  get hungabout




    
    D                       A
  e|2------ ----2-- -------|------- ------- ------- -------|
  B|3-----------3----------|2------------------------------|
  G|2-----------2----------|2------------------------------|
  D|4-----------4----------|2------------------------------|
  A|5-----------5----------|0------------------------------|
  E|-----------------------|-------------------------------|

  e|------- ------- -------|------- ------- ------- -------|
  B|-----------------------|-------------------------------|
  G|-----------------------|-------------------------------|
  D|4----------------------|-------------------------------|
  A|-----------------------|-------------------------------|
  E|-----------------------|-------------------------------|
    Strawberry  Fields  Forever 


                                                  x x   X     X X
    00:33
    E               Abm             E7              D       Fm6 
  e|7------ 7------ 7------ 7------|7------ 7------ 5------ 4------|
  B|9-------9-------9-------9------|9-------9-------7-------6------|
  G|9---------------8--------------|7------------------------------|
  D|-------------------------------|-------------------------------|
  A|-------------------------------|-------------------------------|
  E|-------------------------------|-------------------------------|
    Living      is  easy            eyes    closed,
                                with


    X
    F#m             E               D
  e|5------ ------- 4------ -------|2------ ------- ------- -------|
  B|7---------------5--------------|3------------------------------|
  G|6---------------4--------------|2------------------------------|
  D|-------------------------------|-------------------------------|
  A|-------------------------------|-------------------------------|
  E|-------------------------------|-------------------------------|
    Guitar 1
  e|------- ------- ------- -------|------- ------- ------- -------|
  B|--------2---------------2------|--------3---------3------------|
  G|--------2---------------2------|--------------2---2-----2------|
  D|----4---------------4----------|--4-----------4---------4------|
  A|-------------------------------|-------------------------------|
  E|-------------------------------|-------------------------------|
    Guitar 2
  e|------- ------- ------- -------|------- ------- ------- -------|
  B|-------------------------------|-------------------------------|
  G|-------------------------------|-------------------------------|
  D|-------------------------------|-------------------------------|
  A|-------------------------------|-------------------------------|
 Db|5-------------5-------------5-1|------------------------------0H
        misunderstanding    all you see



                    E               A       E       F#m     E
  e|5------ ------- 7------ -------|9------ 7------ 5------ 4------|
  B|7---------------9--------------10-------9-------7-------5------|
  G|7---------------9--------------|9-------9-------6-------4------|
  D|-------------------------------|-------------------------------|
  A|-------------------------------|-------------------------------|
  E|-------------------------------|-------------------------------|

  e|------- ------- ------- -------|------- ------- ------- -------|
  B|--------3---------------5------|----2-------------2------------|
  G|--2-----2---------4------------|--------2----------------------|
  D|--4----------------------------|--------------2H4-------4-----2H
  A|5---------------7-------------7P0------------------------------|
  E|-------------------------------|-------------------------------|

  e|------- ------- ------- -------|------- ------- ------- -------|
  B|-------------------------------|-------------------------------|
  G|-------------------------------|-------------------------------|
  D|------------------------------2|-------------------------------|
  A|--------------0----------------|0---4---------7---------------2|
 Db|1--------------H3--------------|--------7-------5-------5------|
        It's    hard    to      someone but all works 
            getting       be              it        out,


    D               E               D               A
  e|5------ ------- 7------ -------|5------ ------- 5------ -------|
  B|7---------------9--------------|7---------------5--------------|
  G|7---------------9--------------|7---------------6--------------|
  D|-------------------------------|-------------------------------|
  A|-------------------------------|-------------------------------|
  E|-------------------------------|-------------------------------|

  e|------- ------- ------- -------|------- ------- ------- -------|
  B|--------3----------------------|--3----------------------------|
  G|--2---------------------4------|--------------1H2--------------|
  D|4-----------------6------------|--------4----------------------|
  A|----------------7--------------|-------------------------------|
  E|-------------------------------|-------------------------------|

  e|------- ------- ------- -------|------- ------- ------- -------|
  B|-------------------------------|-------------------------------|
  G|-------------------------------|-------------------------------|
  D|-------------------------------|-------------------------------|
  A|-------------------------------|----------------0--------------|
 Db|1---------------3-------------0H1------------------------------|
        It  doesn't matter      to  me.
                        much

   

    00:55                         x x   X     X x   X     X x X x

  e|------- ------- ------- -------|------- ------- ------- -------|
  B|-------------------------------|----------------14-------------|
  G|-------------------------------|----------------14----------\--|
  D|-------------------------------|----------------14-------------|
  A|0------------------------------|-------------------------------|
  E|0------------------------------|-------------------------------|

  e|------- ------- ------- -------|------- ------- ------- -------|
  B|-------------------------------|-------------------------------|
  G|-------------------------------|-------------------------------|
  D|-------------------------------|-------------------------------|
  A|-------------------------------|-------------------------------|
 Db|-------------------------------|----------------8-----------\--|
            Let me  take        down       'cause   going       to
                        you                     I'm 

    X

  e|------- ------- ------- -------|------- ------- ------- -------|
  B|8------------------------------|-------------------------------|
  G|9------------------------------|-------------------------------|
  D|9------------------------------|-------------------------------|
  A|-------------------------------|-------------------------------|
  E|-------------------------------|-------------------------------|
   (Celli)
  e|------- ------- ------- -------|------- ------- ------- -------|
  B|-------------------------------|-------------------------------|
  G|-------------------------------|-------------------------------|
  D|-------------------------------|-------------------------------|
  A|----------------2--------------|-------------------------------|
 Db|3-------6---------------6------|3-------6-------1-------6------|
                    Strawberry      Fields




  e|------- ------- ------- -------|------- ------- ------- -------|
  B|-------------------------------|-------------------------------|
  G|-------------------------------|-------------------------------|
  D|-------------------------------|-------------------------------|
  A|-------------------------------|-------------------------------|
 Db|0------------------------------|-------------------------------|
                    nothing     is  real                        and




  e|------- ------- ------- -------|------- -------|
  B|-------------------------------|---------------|    
  G|-------------------------------|---------------|
  D|-------------------------------|---------------|
  A|------------------------1-2-4--|---------------|
 Db|1-----------3---5--------------|---------------|
   (Brass)
  e|------- ------- ------- -------|------- -------|  
  B|7-----------9---11-------------|---------------|
  G|7-----------9---11-------------|---------------|
  D|----------------11-------------|---------------|
  A|-------------------------------|---------------|
  E|-------------------------------|---------------|
    nothing to  get hungabout




  e|5------ ----5-- -------|5------ ------- ------- -------|
  B|7-----------7----------|5------------------------------|
  G|7-----------7----------|6------------------------------|
  D|-----------------------|-------------------------------|
  A|-----------------------|-------------------------------|
  E|-----------------------|-------------------------------|

  e|------- ------- -------|------- ------- ------- -------|
  B|-----------------------|-------------------------------|
  G|-----------------------|-------------------------------|
  D|-----------------------|-------------------------------|
  A|2/5---------2/5--------|0------------------------------|
 Db|-----------------------|-------------------------------|
    Strawberry  Fields  Forever 




    
  e|10--9-- ------- ------- -------|
  B|--------10--8------------------|
  G|----------------9---7---6------|
  D|----------------------------7--|
  A|-------------------------------|
  E|-------------------------------|



    01:20
   (Brass)
  e|7------ ------- ------- -------|------- ------- 5------ 4------|
  B|9------------------------------|----------------7-------6------|
  G|9---------------8--------------|7---------------7-------7------|
  D|-------------------------------|-------------------------------|
  A|-------------------------------|-------------------------------|
  E|-------------------------------|-------------------------------|

  e|------- ------- ------- -------|------- ------- ------- -------|
  B|----------------4--------------|-------------------------------|
  G|-------------------------------|-------------------------------|
  D|7------------------------------|-------------------------------|
  A|-------------------------------|-------------------------------|
 Db|-------------------------------|-------------------------------|
    No  one     I   think       in  my              tree,
                        is




  e|5------ ------- 5------ -------|------- ------- ------- -------|
  B|7---------------5--------------|7------------------------------|
  G|6---------------6--------------|7------------------------------|
  D|-------------------------------|7------------------------------|
  A|-------------------------------|-------------------------------|
  E|-------------------------------|-------------------------------|

  e|------- ------- ------- -------|------- ------- ------- -------|
  B|-------------------------------|-------------------------------|
  G|-------------------------------|-------------------------------|
  D|-------------------------------|-------------------------------|
  A|-------------------------------|-------------------------------|
 Db|-------------------------------|----------------5-------3------|
        I   mean    must    high    low.
                it      be      or




  e|------- ------- ------- -------|------- ------- ------- -------|
  B|7---------------5--------------|5---------------7--------------|
  G|7---------------4--------------|6---------------6--------------|
  D|7---------------6--------------|7---------------7--------------|
  A|-------------------------------|-------------------------------|
  E|-------------------------------|-------------------------------|

  e|------- ------- ------- -------|------- ------- ------- -------|
  B|-------------------------------|-------------------------------|
  G|-------------------------------|-------------------------------|
  D|-------------------------------|-------------------------------|
  A|-------------------------------|0------------------------------|
 Db|1---------------3--------------|----------------5-------3------|
        That    you can't   know    in  but all     right, 
          is            you     tune      it's




  e|------- ------- ------- -------|------- ------- ------- -------|
  B|7---------------5--------------|7---------------5--------------|
  G|7---------------4--------------|7---------------6--------------|
  D|7---------------6--------------|7---------------7--------------|
  A|-------------------------------|-------------------------------|
  E|-------------------------------|-------------------------------|

  e|------- ------- ------- -------|------- ------- ------- -------|
  B|-------------------------------|-------------------------------|
  G|-------------------------------|-------------------------------|
  D|-------------------------------|------------------------2------|
  A|-------------------------------|--------0-------0---4-------4--|
 Db|1---1---1---1---3---3---3---3--|1---5--------5-----------------|
        That    I   think   not too     bad.
          is            it's



    01:40                         X X x x     X X x x     X X x x
                                               
  e|------- ------- ------- -------|------- ------- ------- -------|
  B|-------------------------------|----------------14-------------|
  G|-------------------------------|----------------14----------\--|
  D|-------------------------------|----------------14-------------|
  A|-------------------------------|-------------------------------|
  E|-------------------------------|-------------------------------|

  e|------- ------- ------- -------|------- ------- ------- -------|
  B|-------------------------------|-------------------------------|
  G|-------------------------------|-------------------------------|
  D|-------------------------------|-------------------------------|
  A|0------------------------------|-------------------------------|
 Db|-------------------------------|----------------8-----------\--|
            Let me  take        down       'cause   going       to
                        you                     I'm



  e|------- ------- ------- -------|------- ------- ------- -------|
  B|8------------------------------|-------------------------------|
  G|9------------------------------|-------------------------------|
  D|9------------------------------|-------------------------------|
  A|-------------------------------|-------------------------------|
  E|-------------------------------|-------------------------------|

  e|------- ------- ------- -------|------- ------- ------- -------|
  B|-------------------------------|-------------------------------|
  G|-------------------------------|-------------------------------|
  D|-------------------------------|-------------------------------|
  A|----------------2--------------|-------------------------------|
 Db|3-------6---------------6------|3-------6-------1-------6------|

  e|------3 3------ ------- -------|------- ------- ------- -------|
  B|------5-5----------------------|-------------------------------|
  G|-------------------------------|-------------------------------|
  D|-------------------------------|-------------------------------|
  A|-------------------------------|-------------------------------|
  E|-------------------------------|-------------------------------|
                    Strawberry      Fields




  e|------- ------- ------- -------|------- ------- ------- -------|
  B|-------------------------------|-------------------------------|
  G|-------------------------------|-------------------------------|
  D|-------------------------------|-------------------------------|
  A|-------------------------------|-------------------------------|
 Db|0------------------------------|-------------------------------|

  e|------3 3------ ------- -------|------- ------- ------- -------|
  B|------5-5----------------------|----5-5---5-5---5-5---5-5---5--|
  G|-------------------------------|-------------------------------|
  D|-------------------------------|-------------------------------|
  A|-------------------------------|-------------------------------|
  E|-------------------------------|-------------------------------|
                    nothing     is  real                        and




  e|------- ------- ------- -------|------- -------|
  B|-------------------------------|---------------|
  G|-------------------------------|---------------|
  D|-------------------------------|---------------|
  A|------------------------1-2-4--|---------------|
 Db|1-----------3---5--------------|---------------| 

  e|------- ------- ------- -------|------- -------|  
  B|7-----------9---11-------------|---------------|
  G|7-----------9---11-------------|---------------|
  D|----------------11-------------|---------------|
  A|-------------------------------|---------------|
  E|-------------------------------|---------------|
    nothing to  get hungabout




  e|------- ------- -------|------- ------- ------- -------|
  B|-----------------------|-------------------------------|
  G|-----------------------|-------------------------------|
  D|-----------------------|-------------------------------|
  A|0/5---------0/5------\-|0------------------------------|
 Db|-----------------------|-------------------------------|

  e|5------ ------- -------|5------ ------- ------- -------|
  B|7----------------------|5------------------------------|
  G|7----------------------|6------------------------------|
  D|-----------------------|-------------------------------|
  A|-----------------------|-------------------------------|
  E|-----------------------|-------------------------------|
    Strawberry  Fields  Forever 




    
  e|10--9-- ------- ------- -------|
  B|--------10--8------------------|
  G|----------------9---7---6------|
  D|----------------------------7--|
  A|-------------------------------|
  E|-------------------------------|



    02:05

  e|7------ 7------ 7------ 7------|7------ 7------ 5------ 4------|
  B|9-------9-------9-------9------|9-------9-------7-------6------|
  G|9---------------8--------------|7---------------7-------7------|
  D|-------------------------------|-------------------------------|
  A|-------------------------------|-------------------------------|
  E|-------------------------------|-------------------------------|

  e|------- ------- ------- -------|------- ------- ------- -------|
  B|-------------------------------|-------------------------------|
  G|-------------------------------|-------------------------------|
  D|7------------------------------|-------------------------------|
  A|-------------------------------|-------------------------------|
 Db|-------------------------------|-------------------------------|
    Always,         no      sometimes,      think   me,
                                                it's



  e|------- ------- ------- -------|------- ------- ------- -------|
  B|-------------------------------|-------------------------------|
  G|-------------------------------|-------------------------------|
  D|-------------------------------|-------------------------------|
  A|-------------------------------|-------------------------------|
 Db|-------------------------------|----------------5-------3------|

  e|5------ 5------ 5------ 5------|5------ ------- ------- -------|
  B|7-------7-------5-------5------|7------------------------------|
  G|6---------------6--------------|7------------------------------|
  D|-------------------------------|-------------------------------|
  A|-------------------------------|-------------------------------|
  E|-------------------------------|-------------------------------|
        But know  know  when  a dream.
         you    I           it's 



  e|------- ------- ------- -------|------- ------- ------- -------|
  B|-------------------------------|-------------------------------|
  G|-------------------------------|-------------------------------|
  D|-------------------------------|-------------------------------|
  A|-------------------------------|0------------------------------|
 Db|1----3----5-----3----5----7----|-----3----0-----5-------3------|
         I  think   know  mean  ah 'Yes'  it's      wrong, 
                I       I               but all




  e|------- ------- ------- -------|------- ------- ------- -------|
  B|-------------------------------|-------------------------------|
  G|-------------------------------|-------------------------------|
  D|-------------------------------|------------------------2-0----|
  A|-------------------------------|--------0-------0---4-------4-2|
 Db|1---1---1---1---3---3---3---3--|1---5--------5-----------------|

  e|------- ------- 4------ -------|------- ------- ------- -------|
  B|7---------------5--------------|7---------------5--------------|
  G|7---------------4--------------|7---------------6--------------|
  D|7------------------------------|7---------------7--------------|
  A|-------------------------------|-------------------------------|
  E|-------------------------------|-------------------------------|
       That     I   think     disagree.
          is            I


    02:25                         x X x x     x X x x     X X x x                             

  e|------- ------- ------- -------|------- ------- ------- -------| 
  B|-------------------------------|-------------------------------|
  G|-------------------------------|-------------------------------|
  D|-------------------------------|-------------------------------|
  A|0------------------------------|-------------------------------|
 Db|-------------------------------|------------------------8---\--|
                                        A
  e|------- ------- ------- -------|------- ------- ------- -------|
  B|5------------------------------|----5---5---5---5---5---5---5--|
  G|6------------------------------|----6---6---6---6---6---6---6--|
  D|7------------------------------|----7---7---7---7---7---7---7--|
  A|-------------------------------|-------------------------------|
  E|-------------------------------|-------------------------------|
            Let me  take        down       'cause   going       to
                        you                     I'm


                                    EM              G
  e|------- ------- ------- -------|------- ------- ------- -------|
  B|-------------------------------|-------------------------------|
  G|-------------------------------|4---4---4---4---4---4---4---4--|
  D|-------------------------------|5---5---5---5---5---5---5---5--|
  A|--------2-------7---2-------2--|7---7---7---7---5---5---5---5--|
 Db|3---6-------6-----------6------|-------------------------------|
    Em                              
  e|------- ------- ------- -------|------- 7------ ----7-- ----6--|
  B|8------------------------------|----8-----------8--------------|
  G|9------------------------------|9-----------7------------------|
  D|9------------------------------|-------------------------------|
  A|-------------------------------|-------------------------------|
  E|-------------------------------|-------------------------------|
                    Strawberry      Fields



    F#
  e|------- ------- ------- -------|------- ------- ------- -------|
  B|-------------------------------|-------------------------------|
  G|3---3---3---3---3---3---3---3--|3---3---3---3---3---3---3---3--|
  D|4---4---4---4---4---4---4---4--|4---4---4---4---4---4---4---4--|
  A|4---4---4---4---4---4---4---4--|4---4---4---4---4---4---4---4--|
 Db|-------------------------------|-------------------------------|

  e|------- ------- ------- -------|------- ------- ------- -------|
  B|7------------------------------|----5-5---5-5---5-5---5-5---5--|
  G|6------------------------------|-------------------------------|
  D|-------------------------------|-------------------------------|
  A|-------------------------------|-------------------------------|
  E|-------------------------------|-------------------------------|
                    nothing     is  real                        and




  e|------- ------- ------- -------|------- -------|
  B|-------------------------------|---------------|
  G|-------------------------------|---------------|
  D|-------------------------------|---------------|
  A|------------------------1-2-4--|---------------|
 Db|1-----------3---5--------------|---------------|
    D           E   F#
  e|------- ------- ------- -------|------- -------|
  B|7-----------9---11-------------|---------------|
  G|7-----------9---11-------------|---------------|
  D|----------------11-------------|---------------|
  A|-------------------------------|---------------|
  E|-------------------------------|---------------|
    nothing to  get hungabout




    02:44                                   X   X X X X X X

  e|------- ------- -------|------- ------- ------- -------|
  B|-----------------------|-------------------------------|
  G|-----------------------|-------------------------------|
  D|-----------------------|-------------------------------|
  A|0/5---------0/5--------|0------------------------------|
 Db|-----------------------|----------------5--------------|  
    D                       A               F#m
  e|5------ ------- -------|5------ ------- 5------ -------|
  B|7----------------------|5---------------7--------------|
  G|7----------------------|6---------------6--------------|
  D|-----------------------|-------------------------------|
  A|-----------------------|-------------------------------|
  E|-----------------------|-------------------------------|
    Strawberry  Fields  Forever 


    X           X           X       X X   X X X X

  e|------- ------- -------|------- ------- -------|
  B|-----------------------|-----------------------|
  G|-----------------------|-----------------------|
  D|-----------------------|-----------------------|
  A|0/5---------0/5--------\0----------------------|
 Db|-----------------------|-----------------------|

  e|5------ ------- -------|------- ------- -------|
  B|7----------------------|-----------------------|
  G|7----------------------|-----------------------|
  D|-----------------------|-----------------------|
  A|-----------------------|-----------------------|
  E|-----------------------|-----------------------|
    Strawberry  Fields  Forever 


    X           X           X       x   x   x   x

  e|------- ------- -------|------- ------- -------|
  B|-----------------------|-----------------------|
  G|-----------------------|-----------------------|
  D|-----------------------|-----------------------|
  A|-----------------------|-----------------------|
 Db/5----------/7----------/5----------------------|
    Strawberry  Fields  Forever 



    x   x   x   x   x   x x X   x X X X X

  e|------- ------- -------|------- -------|
  B|-----------------HP----|---------------|
  GB11R9--------7---676-\-4|4--------------|
  D|-----------------------|---------------|
  A|--------0--------------|---------------|
  E|-----------------------|---------------|

  e|------- ------- -------|------- -------|
  B|-----------------------|---------------|
  G|-----------------------|---------------|
  D|-----------------------|---------------|
  A|-----------------------|-------/5-\-4--|
 Db|-----------------------|---------------|
                                    A
  e|------- ------- -------|------- 12-----|
  B|-----------------------|--------14-----|
  G|-----------------------|--------14-----|
  D|-----------------------|---------------|
  A|-----------------------|---------------|
  E|-----------------------|---------------|


    02:59
    X

  e|------- ------- ------- -------|------- ------- ------- -------|
  B|-------------------------------|-------------------------------|
  G|-------------------------------|-------------------------------|
  D|-------------------------------|----------------7-------0---2--|
  A|-------------------------------|--------0----------------------|
 Db|8-\-6--------------------------|-------------------------------|

  e|12----- 12----- 12----- 12-----|12----- 12----- 12----- 12-----|
  B|14------14------14------14-----|14------14------14------14-----|
  G|14------14------14------14-----|14------14------14------14-----|
  D|-------------------------------|-------------------------------|
  A|-------------------------------|-------------------------------|
  E|-------------------------------|-------------------------------|





  e|------- ------- ------- -------|------- ------- ------- -------|
  B|-------------------------------|-------------------------------|
  G|-------------------------------|----------------2--------------|
  D|4---0-----------0---2----------|-------------------------------|
  A|--------2---4-----------0------|0-------0----------------------|
 Db|-------------------------------|-------------------------------|

  e|12----- 12----- 12----- 12-----|12----- 12----- 12----- 12-----|
  B|14------14------14------14-----|14------14------14------14-----|
  G|14------14------14------14-----|14------14------14------14-----|
  D|-------------------------------|-------------------------------|
  A|-------------------------------|-------------------------------|
  E|-------------------------------|-------------------------------|



    03:09

  e|------- ------- ------- -------|------- ------- ------- -------|
  B|-------------------------------|-------------------------------|
  G|----7---6H7R6H7R6H7R6H7R6H7R6H7|-------------------------------|
  D|--------7----------------------|-------------------------------|
  A|0------------------------------|-------------------------------|
  E|-------------------------------|-------------------------------|

  e|------- ------- ------- -------|------- ------- ------- -------|
  B|-------------------------------|-------------------------------|
  G|-------------------------------|-------------------------------|
  D|-------------------------------|-------------------------------|
  A|-------------------------------|4/5\4--/5\4/5\--4/5\4--/5\4----|
 Db|-------------------------------|-------------------------------|

  e|12----- 12----- 12----- 12---12|12----- 12----- 12----- 12---12|
  B|14------14------14------14---14|14------14------14------14---14|
  G|14------14------14------14---14|14------14------14------14---14|
  D|-------------------------------|-------------------------------|
  A|-------------------------------|-------------------------------|
  E|-------------------------------|-------------------------------|





  e|------- ------- ----5-- ----3--|------- ------- ----3-- -------|
  B|----3-------5------------------|------------------------5------|
  G|-------------------------------|-------------------------------|
  D|-------------------------------|-------------------------------|
  A|-------------------------------|-------------------------------|
  E|-------------------------------|-------------------------------|

  e|12----- 12----- 12----- 12-----|12----- 12----- 1212--- 12-----|
  B|14------14------14------14-----|14------14------1414----14-----|
  G|14------14------14------14-----|14------14------1414----14-----|
  D|-------------------------------|-------------------------------|
  A|-------------------------------|-------------------------------|
  E|-------------------------------|-------------------------------|





  e|9------ ------- ------- -------|----10- ----9-- ----9-- -------|
  B|------------10------8----------|----------------------------8--|
  G|----------------------------9--|-------------------------------|
  D|-------------------------------|-------------------------------|
  A|-------------------------------|-------------------------------|
  E|-------------------------------|-------------------------------|

  e|12----- 12----- 12----- 1212---|12----- 12----- 12----- 1212---|
  B|14------14------14------1414---|14------14------14------1414---|
  G|14------14------14------1414---|14------14------14------1414---|
  D|-------------------------------|-------------------------------|
  A|-------------------------------|-------------------------------|
  E|-------------------------------|-------------------------------|
    ........................... Fade out ..........................




  e|------- ----12- ----10- 9------|------- ------- ------- -------|
  B|----------------------------10-|-------------------------------|
  G|----9--------------------------|12--9-------9------------------|
  D|-------------------------------|--------------------12---------|
  A|-------------------------------|-------------------------------|
  E|-------------------------------|-------------------------------|

  e|12----- 12----- 1212--- 12-----|12----- 12----- 12----- 12-----|
  B|14------14------1414----14-----|14------14------14------14-----|
  G|14------14------1414----14-----|14------14------14------14-----|
  D|-------------------------------|-------------------------------|
  A|-------------------------------|-------------------------------|
  E|-------------------------------|-------------------------------|
    ...............................................................




  e|------- ------- ------- -------|------- ------- ------- -------|
  B|----10----------10-------------|----10-------------------------|
  G|-------------------------------|-------------------------------|
  D|12------------------12---------|-------------------------------|
  A|-------------------------------|-------------------------------|
  E|-------------------------------|-------------------------------| ...

  e|12--12- 12----- 12--12- 12-----|12----- 12----- 12----- 12-----|
  B|14--14--14------14--14--14-----|14------14------14------14-----|
  G|14--14--14------14--14--14-----|14------14------14------14-----|
  D|-------------------------------|-------------------------------|
  A|-------------------------------|-------------------------------|
  E|-------------------------------|-------------------------------|
    ...............................................................









        B  Bend
        R  Release
        /  Slide up
        \  Slide down
        H  Hammer-on
        P  Pull-off
        ~  Vibrato
        +  Harmonic
        x  Mute note
        .  Play note like a dot in standard notation
        ^  Ties two notes together
        (. Pause







            
            
Suggest correction
Creating personal tab
Creating personal tab
You can edit any tab online and save it as your Personal.

You can edit, replace or remove any tab part or add personal notes – all changes will be seen only by you.

Personal tabs can be accessed anytime from any device, even offline.
Learn more »
comments
print report bad tab
4 comments total. Showing first comments.
0 reply
aig91 4,357 Jun 17, 2008 08:24 AM

Perfect! Great tab PJVILL!

0 reply
Who66 1,186 Jun 17, 2008 05:27 PM

bloody perfect...so great.

+1 reply
Jibbs 431 Jun 19, 2008 11:43 AM

No one does Beatle tabs like you, thanks for this one and all of them.

guest
You may want to rate the tab now too:
select rating
Wanna post a correction for this tab? Suggest correction